Song name
# A B C D E F G H I J K L M N O P Q R S T U V W X Y Z

Six Feet Under - Poison Hand tab

Six Feet Under
The Poison Hand
13

Tuning C F Bb Eb G c

Riff 1.1

|------------------|
|------------------|
|------------------|
|/7-----/8---------|
|/7-----/8---------|
|/5-0-0-/6-0-0-0-0-|


Riff 1.2

|------------------|
|------------------|
|------------------|
|/7-----/8-----3---|
|/7-----/8-----3---|
|/5-0-0-/6-0-0-1-0-|


Riff 2.1

|----------------------------|
|----------------------------|
|----------------------------|
|5---4-----------------------|
|5---4-----------------------|
|3---2---0-0-0-0-0-0-0-0-0-0-|


Riff 2.2

|-----------------------------|
|-----------------------------|
|-----------------------------|
|5---4---5-5------------------|
|5---4---5-5------------------|
|3---2---3-3------------------|


Riff 3.1

|------------------------------|
|------------------------------|
|9-------8---------------6-----|
|9-------8-------5-------6-----|
|7-------6-------5-------4-----|
|7-------6-------3-------4-----|


Riff 3.2

|------------------------------|
|------------------------------|
|9-------8---------------6-5-6-|
|9-------8-------5-------6-5-6-|
|7-------6-------5-------4-3-4-|
|7-------6-------3-------4-3-4-|

Tap to rate this tab
# A B C D E F G H I J K L M N O P Q R S T U V W X Y Z