Guitaretab - guitar tabs
Song name
# A B C D E F G H I J K L M N O P Q R S T U V W X Y Z

Six Feet Under - Shadow Of The Reaper tab

Six Feet Under: The Shadow Of The Reaper

Tabbed By: Derek Tibbs (Formerly Robin Graves)

Thus far I have only figured out the intro/first verse, pre-verse, and bridge, but I 
on updating this tab once I figure out the second verse and solo.

+=pinch harmonic

Intro:

C-------------------------------------|
G-------------------------------------|
Eb------------------------------------|
Bb------------------------------------|
F--12-8-11-7-8-5-7+-12-8-11-7-8-12-10-|
C-------------------------------10-8--|

C---------------------------------------------|
G---------------------------------------------|
Eb--------------------------------------------|
Bb--------------------------9/1010-12---------|
F--12-8-11-7-8-5-7+-12-8-11-X/X-X--X----------|
C---------------------------7/8-8--10--|

Pre-Verse:

C-----------------------------------------------|
G-----------------------------------------------|
Eb----------------------------------------------|
Bb----------------------------------------------|
F--14-14-12p11p8p7h8p7p5-15-15-12p11p8p7h8p7p5--|
C--12-12-----------------13-13------------------|
[ Tab from: http://www.guitaretab.com/s/six-feet-under/68427.html ]
C-----------------------------------------------|
G-----------------------------------------------|
Eb----------------------------------------------|
Bb----------------------------------------------|
F--12-12-12p11p8p7h8p7p5-1010-1010/-9-7---------|
C--10-10------------------8-8--8-8/-7-5--|

1st Verse:


C-------------------------------------|
G-------------------------------------|
Eb------------------------------------|
Bb------------------------------------|
F--12-8-11-7-8-5-7+-12-8-11-7-8-12-10-|
C-------------------------------10-8--|

C---------------------------------------------|
G---------------------------------------------|
Eb--------------------------------------------|
Bb--------------------------9/1010-12---------|
F--12-8-11-7-8-5-7+-12-8-11-X/X-X--X----------|
C---------------------------7/8-8--10--|

Bridge:(palm-mute open chords)

C-------------------------------------------------|
G-------------------------------------------------|
Eb------------------------------------------------|
Bb------------------------------------------------|
F-2222222-3-2222222-8-2222222-3-0000-8-8---|
C--0000000-1-0000000-6-0000000-1-0000-6-6---------|
Related for Shadow Of The Reaper tab