Song name
# A B C D E F G H I J K L M N O P Q R S T U V W X Y Z

Six Feet Under - Wormfood tab

===========================================================================

 Six feet under: Wormfood
 Album: 13
 Tabbed by: Marcus Lompo
 Email:www.ismynamemarcus@yahoo.com



|* Palm muted




Riff A
e|------------------------------------------------------------------------|
B|------------------------------------------------------------------------|
G|------------------------------------------------------------------------|
D|------------------------------------------------------------------------|
A|----2-------2-------2------2-------2-------2-------2-------2------------|
E|----0-0000--0-0000--0-0000-0-0000--0-0000--0-0000--0-0000--0-0000-------|
        ****    ****    ****   ****    ****    ****    ****    ****    
e|------------------------------------------------------------------------|
B|------------------------------------------------------------------------|
G|------------------------------------------------------------------------|
D|------------------------------------------------------------------------|
A|----5-------5-------5-------5-------4-------4-------3---------3---3-----|
E|----3-3333--3-3333--3-3333--3-3333--2-2222--2-2222--1-1111--1-1-1-1-----|
        ****    ****    ****    ****    ****    ****    ****  *   *



Riff B
e|------------------------------------------------------------------------|
B|------------------------------------------------------------------------|
G|------------------------------------------------------------------------|
D|------------------------------------------------------------------------|
A|---------3-------3-----------5------------------------------------------|
E|-0000000-1--0000-1--00000000-3------------------------------------------|
   ********   ****    ********   




Riff C
e|------------------------------------------------------------------------|
B|------------------------------------------------------------------------|
G|------------------------------------------------------------------------|
D|------------------------------------------------------------------------|
A|--2--3---2--4---2-5-----------------------------------------------------|
E|--0--1---0--2---0-3-----------------------------------------------------|

Structure
Riff A   *4 (Intro & Verse)
RIff B   *8 (Chorus intro & Chorus)
Riff A   *2 (Verse)
Riff B   *4 (Chorus)
Riff A   *2 (Verse)
Riff C   *4 (Solo, lead guitar)
Riff B   *4 (Solo cont.)
Riff A   *3 (Verse)
Riff A   *1  fade Out (verse cont.)

Pretty easy song!!
Email me if u figure out the solo or if u see something wrong

===========================================================================

Tap to rate this tab
# A B C D E F G H I J K L M N O P Q R S T U V W X Y Z