Song name
# A B C D E F G H I J K L M N O P Q R S T U V W X Y Z

Six Feet Under - Stump tab

Help us improve GuitareTab! Take a short survey!
 Song: Stump
 Band: Six Feet Under
Album: 13

Tabbed By Scott Carlin

Riff 1 x2
|-------------------------------|
|-------------------------------|
|-------------------------------|
|-------------------------------|
|--------3---------------3------|
|--2-5-2---5-4---2-5-2-1---5-4--|
   " " " " " "   " " " " " " "

Riff 2 x5
|-------|
|-------|
|-------|
|-------|
|-4-3-2-|
|-2-1-0-|
  . . .

Riff 1 x1
Riff 2 x5
Riff 1 x2
Riff 2 x5

Riff 3 x1
|-------|
|-------|
|-------|
|-------|
|---7---|
|---5---|

Riff 1 x2
Riff 2 x5
Riff 1 x1
Riff 2 x5
Riff 1 x2
Riff 2 x5
Riff 3 x1
                         _____Variations___
Riff 4 x4                |    1,3,4|   2   |
|----------------------------------|-------|  *When You Are
|----------------------------------|-------|   Playing Riff 4
|----------------------------------|-------|   The 4th Time You
|----------------------------------|-----2-|   Need To Use Heavy
|--3/4---4/5---3/4---4/5--3/4-2h3--|-2-3-2-|   Palm Muting.
|--1/2-0-2/3-0-1/2-0-2/3--1/2-0h1--|-0-1-0-|
       .     .     .                 . .

Riff 5 x2
|--------------------------------------|
|--------------------------------------|
|--------------------------------------|
|--------------------------------------|
|--2--5--4--3-4-2-3--2--5--6--3-4-2-3--|
|--0--3--2--1-2-0-1--0--3--4--1-2-0-1--|
            . . . .           . . . .

Riff 4 x4 ( Same Variations )
Riff 5 x2
( Solo )
Riff 1 x2
Riff 2 x5
Riff 1 x1
Riff 2 x5
Riff 1 x2
Riff 2 x3
Riff 3 x1

Thats It, Have Fun...
Related for Stump tab