Guitaretab - guitar tabs
Song name
# A B C D E F G H I J K L M N O P Q R S T U V W X Y Z

Six Feet Under - Sick Twisted tab

Artist:Six Feet Under
Song:Sick & Twisted
Tunning: Drop D

Consideration:
.= Dampen
 / = Slide

INTRO:
E --------------------------------------|
H --------------------------------------|
G --------------------------------------|
D ---10-6-4-5-5-4----6--5--4------------|
A ---10-6-4-5-5-4----4--3--2------------|
D ---10-6-4-5-5-4--0--0--0--------------|
                   .  .  .

E --------------------------------------|
H --------------------------------------|
G -------------------------4------------|
D ---10-6-4-5-5-4----6--5--4------------|
A ---10-6-4-5-5-4----4--3--2------------|
D ---10-6-4-5-5-4--0--0--0--------------|
                   .  .  .

E --------------------------------------|
H --------------------------------------|
G --------------------------------------|
D ---10-6-4-5-5-4----6--5--4------------|
A ---10-6-4-5-5-4----4--3--2------------|
D ---10-6-4-5-5-4--0--0--0--------------|
                   .  .  .

E --------------------------------------|
H --------------------------------------|
G --------------------------------------|
D ---10-6-4-5-5-4--44/1-----------------|
A ---10-6-4-5-5-4--44/1-----------------|
D ---10-6-4-5-5-4--44/1-----------------|
[ Tab from: http://www.guitaretab.com/s/six-feet-under/88688.html ]
VERSE:
E -------------------------------------|
H -------------------------------------|
G -------------------------------------|
D -3/6-6/5-/8/4---3/6-6/5-/8-----------|
A -3/6-6/5-/8/4---3/6-6/5-/8-----------|
D -3/6-6/5-/8/4---3/6-6/5-/8-----------|

PRECHORUS:
E ---------------------------------------------------------|
H ---------------------------------------------------------|
G ---------------------------------------------------------|
D -2---3-2--2/5--/8--7--8--2---3-2--2/5--/8-7-8------------|
A -2---3-2--2/5--/8--7--8--2---3-2--2/5--/8-7-8------------|
D -2---3-2--2/5--/8--7--8--2---3-2--2/5--/8-7-8------------|

CHORUS:
E --------------------------------------------|
H --------------------------------------------|
G --------------------------------------------|
D ---------00-0-1--00-0-2/0--00-0-1--00-0-3/0-|
A ---------00-0-1--00-0-2/0--00-0-1--00-0-3/0-|
D ---------00-0-1--00-0-2/0--00-0-1--00-0-3/0-|
           .. .    .. .      .. .    .. .


Schedule:
Intro 3x
Verse 2x
Intro 1x
Verse 2x
Prechorus 1x
Chorus 3x
Prechorus 1x
Chorus 3x
Prechorus 1x
Intro 1x (Outro)
Verse 2x
Intro 1x (Outro)

This is the one of the best songs from SFU!I think the tab is ok...SFU playing on more 
tunning...but you can play that with drop D and itís.....same a little bit :-D this is 
I think;-).
I hope you enjoy it.

By CRASH_X (Czech Republic)

If you have any suggestion I welcome them.

Contact: Diluted@centrum.cz
Related for Sick Twisted tab