Six Organs Of Admittance - Words For Two tab

"Words for Two" by Six Organs of Admittance
Tabbed by Brian Yates
briansyates@gmail.com

Intro and Verse

E|---------------------------------|
B|-------3-----1-----0-----0-----0-|
G|0--------------------------------|
D|-------0-----0-----0-----0-----0-|
A|---------------------------------|
E|3---3-----3-----3------3----3----|

E|---------------------------------|
B|-------3-----1-----0-----0-----0-|
G|0------------------0-----0-----0-|
D|-------0-----0-------------------|
A|-------------------2---2----2----|
E|3---3-----3-----3----------------|

E|---------------------------------|
B|---------------------------------|
G|-2-----2-----2-------------------|
D|---------------------------------|
A|-0--0-----0----------------------|
E|---------------------------------|

E|--------------------------------|
B|--------------------------------|
G|--0------0---2p0---0----0----0--|
D|-----0h2---0-----2--------------|
A|--------------------------------|
E|--3--------3---------3----3-----|

Chorus

E|------------2----2---2----------|
B|--3---3---3------3---3----------|
G|--------------------------------|
D|--0-0---0---0--0---0------------|
A|--------------------------------|
E|--------------------------------|


E|--------------------------------|
B|-1p0----------------------------|
G|------4---4--2h4-4----4---------|
D|-0------0----0-----0------------|
A|--------------------------------|
E|--------------------------------|

E|--------------------------------|
B|--------------------------------|
G|------0----0------0-----0-------|
D|--0-----------0-----------------|
A|--3p2---2-----0h2----2----------|
E|--------------------------------|

E|--------------------------------|
B|--------------------------------|
G|--4----4----4--2----2---2-------|
D|--------------------------------|
A|--2--2----2----0--0---0---------|
E|--------------------------------|


E|--------------------------------|
B|--------------------------------|
G|--0------0---2p0---0----0----0--|
D|-----0h2---2-----2--------------|
A|--------------------------------|
E|--3--------3-------3--3---3-----|

and so on.

Ending riff:

E|--------------------------------|
B|--------------------------------|
G|-0-----0-2h4p2p0---0------------|
D|---0h2-----------2--------------|
A|--------------------------------|
E|-3------------------------------|
Tap to rate this tab
 
# A B C D E F G H I J K L M N O P Q R S T U V W X Y Z