Song name
# A B C D E F G H I J K L M N O P Q R S T U V W X Y Z

Six Organs Of Admittance - All Youve Left tab

SIX ORGANS OF ADMITTANCE
"EIGHTH COGNITION/ALL YOU'VE LEFT"
Off their album "School of the Flower"

First minute and a half is all noise, drums and feedback ("Eighth Cognition").

Intro/Verse
E|--------------------------0--0-0-----------|
B|-0----------0--0h3--3------------3----0----|
G|---2-0--2--------------------------2-------|
D|------------0-------0-----2-----------0----|
A|-------------------------------------------|
E|-0----------3-------3-----0-----------3----|

The next riff is just the end of the verse

E|-0--0-0-----------|
B|--------3----0----|
G|----------2-------|
D|-2-----------0----|
A|------------------|
E|-0-----------3----|

"Interlude"
E|-3--2-0----0-------------------------|
B|--------3-----3--0----0-----------0--|
G|-----------0-------------2--0--2--0--|
D|----------------------2-----------0--|
A|-------------------------------------|
E|-0---------3----------0-----------3--|

Most of the song is the intro/verse riff with a couple of the "interlude" riffs thrown in. 
Ben fingerpicks other notes in the chords but this is the basic gist of it. 

Questions or comments e-mail briansyates@gmail.com
Tap to rate this tab
 
# A B C D E F G H I J K L M N O P Q R S T U V W X Y Z