Song name
# A B C D E F G H I J K L M N O P Q R S T U V W X Y Z

Six Organs Of Admittance - Procession Of Cherry Blossom Spritis tab

Title: Procession of Cherry Blossom Spririts
Album: School of the Flower
Artist: Six Organs of Admittance

D -------------0-----------------------------------------------------|
A -3h5p3---3-0-------0-------------------------5s7-7----0------------|
G -------4-------------0-4p2p0-------------------------0-0-----------|
D ----------------------------2---0-------0-------0---0--------------|
A -------------------------------------------------------------------|
D -0---------------------0------------0--------0---------------------|

D -------------0-----------------------------0------------0----------|
A -3h5p3---3-0-------0--------------------------0------------0-------|
G -------4-------------0-4p2p0-------------------0------0-----0------|
D ----------------------------2---0-------0------------0-0-----------|
A ----------------------------------------------------3--------------|
D -0---------------------0------------0------------------------------|

D -------------0-----------------------------3p2p0-------------------|
A -3h5p3---3-0-------0----------------------------5p3-0-3-5----------|
G -------4-------------0-4p2p0---------------------------------------|
D ----------------------------2---0-------0--------------------------|
A -------------------------------------------------------------------|
D -0---------------------0------------0------------------------------|


tabbed by gianni
Tap to rate this tab
# A B C D E F G H I J K L M N O P Q R S T U V W X Y Z