Song name
# A B C D E F G H I J K L M N O P Q R S T U V W X Y Z

Six Organs Of Admittance - Lisboa tab

Tabbed by: Paul Heyes

This is the last song from the school of the flower l.p. It's a mellow little
picking with some really nice slides but this is just my rough translation,
really its way off, but if someone with a good ear wants to have a go at working
it out properly it may help.  


e|-------|-------|-------|-------|---------|---------|----------|----------|
B|-2-3-5-|-2-3-5-|-5-5-5-|-5-3-2-|-5/7-7-7-|-7/9-9-9-|9/10-10-10|-10/9-9--9|
G|-------|-------|-------|-------|---------|---------|----------|----------|
D|-------|-------|-------|-------|---------|---------|----------|----------|
A|--0-0--|--0-0--|--0-0--|--0-0--|----0----|----0----|----0-----|-----0----|
D|-0-----|-0-----|-0-----|-0-----|-0----0--|-0----0--|0------0--|-0-----0--|

e|-------|-------|-------|-------|---------|---------|--------|------------|
B|-2-3-5-|-2-3-5-|-5-5-5-|-5-3-2-|-3/5-5-5-|-5/7-7-7-|7/9-9/10|-10/12-12/10|
G|-------|-------|-------|-------|---------|---------|--------|------------|
D|-------|-------|-------|-------|---------|---------|--------|------------|
A|--0-0--|--0-0--|--0-0--|--0-0--|----0----|----0----|---0----|0-----0-----|
D|-0-----|-0-----|-0-----|-0-----|-0----0--|-0----0--|0-------|------------|

e|-------|-------|-------|-------|---------|---------|----------|----------|
B|-2-3-5-|-2-3-5-|-5-5-5-|-5-3-2-|-5/7-7-7-|-7/9-9-9-|9/10-10-10|-10/9-9--9|
G|-------|-------|-------|-------|---------|---------|----------|----------|
D|-------|-------|-------|-------|---------|---------|----------|----------|
A|--0-0--|--0-0--|--0-0--|--0-0--|----0----|----0----|----0-----|-----0----|
D|-0-----|-0-----|-0-----|-0-----|-0----0--|-0----0--|0------0--|-0-----0--|

e|-------|-------|-------|-------|---------|---------|--------|------------|
B|-2-3-2-|-5-3-2-|-2-3-2-|-5-3-2-|-3/5-5-5-|-5/7-7-7-|7/9-9/10|-10/12-12/10|
G|-------|-------|-------|-------|---------|---------|--------|------------|
D|-------|-------|-------|-------|---------|---------|--------|------------|
A|--0-0--|--0-0--|--0-0--|--0-0--|----0----|----0----|---0----|0-----0-----|
D|-0-----|-0-----|-0-----|-0-----|-0----0--|-0----0--|0-------|------------|

Interlude

e|----------------------------|
B|----------------------------|
G|----------------------------|
D|---0-------0-------------0--|
A|--2-2-2-0h2-2-5-4-2-0-0h2-2-|
D|-0---0-------0--------------|X4
 
after he plays the interlude section, the second half goes on much like the
first - and as he repeats the interlude bit at the very end, he gradually slows
it down to a stop.   





Tap to rate this tab
# A B C D E F G H I J K L M N O P Q R S T U V W X Y Z