Song name
# A B C D E F G H I J K L M N O P Q R S T U V W X Y Z

Six Pack - Gbi tab

Copyright Six Pack.

Pretty basic.

>= In this tab, it means to sustain.

Intro
e---------------------------------------------------|
b---------------------------------------------------|
g--22-44-55-33--------------------------------------|
d--22-44-55-33----Done-four-times.------------------|
a--00-22-33-11--------------------------------------|
e---------------------------------------------------|
Do this not as fast as you can, but at a pretty good speed.

RiffA
e---------------------------------------------------|
b---------------------------------------------------|
g--2453---------------------------------------------|
d--2453---Done eight times.-------------------------|
a--0231---------------------------------------------|
e---------------------------------------------------|
Do this as fast as you can.

RiffB
e---------------------------------------------------|
b---------------------------------------------------|
g-5>----77--99--------------------------------------|
d-5>--55777799----Done eight times.-----------------|
A-3>--55557777--------------------------------------|
e-----33--55----------------------------------------|
As fast as you can.

Bridge/Interlude
e---------------------------------------------------|
b---------------------------------------------------|
g---7>---6>-66-6>-----------------------------------|
d---7>---6>-66-6>-----------------------------------|
a---5>---4>----4>-----------------------------------|
e---------------------------------------------------|

RiffA Variation
e---------------------------------------------------|
b---------------------------------------------------|
g--2453-2453--1212121212----------------------------|
d--2453-2453--1212121212----------------------------|
a--0231-0231--1010101010----------------------------|
e---------------------------------------------------|

RiffA/Outro
e---------------------------------------------------|
b---------------------------------------------------|
g--2453---------------------------------------------|
d--2453---Done eight times.-------------------------|
a--0231---------------------------------------------|
e---------------------------------------------------|
Tap to rate this tab
# A B C D E F G H I J K L M N O P Q R S T U V W X Y Z