Song name
# A B C D E F G H I J K L M N O P Q R S T U V W X Y Z

Six Pack - Berza Bez Granica tab

******************* BERZA BEZ GRANICA *******************

Bass intro:
-------------------------------------------------------------|
-------------------------------------------------------------|
-5555-5--8888-8--------5555-5--8888-8------------------------|
----------------8888-8----------------8888-8-----------------|

Guitar intro:
-------------------------------------------------------------|
-------------------------------------------------------------|
-4444-7--4444-7--4444-7--4444-7---7--------------------------|
-4444-7--4444-7--4444-7--4444-7---7--------------------------|
-2222-5--2222-5--2222-5--2222-5---5--------------------------|
-------------------------------------------------------------|

Tema:
-------------------------------------------------------------|
-------------------------------------------------------------|
----7---14-12--11-11h12p11--10p9--7--------------------------| > 3x
-------------------------------------------------------------|
-------------------------------------------------------------|
-------------------------------------------------------------|

-------------------------------------------------------------|
-------------------------------------------------------------|
----7---14-12---10-10p9--7-----------------------------------|
-------------------------------------------------------------|
-------------------------------------------------------------|
-------------------------------------------------------------|

D5 F5 C5 X2

    D5
Dobrodosli u berzu bez granica,
        D5
za saku para ovde mozete kupiti bas sve:
D5
ljubav svoga sina ili novo radno mesto,
        D5
ugled u drustvu, centar paznje i najlepse devojke.

 D5                 F5       C5
Prodajemo smisao za humor na metar,
        D5                     F5   C5
imamo odlicne diplome za svih osam razreda,
         D5          F5    C5
lekarska uverenja za put u penziju,
         D5                F5   C5
kartu do neba za jednu ili vise osoba...

H5         D5    H5         D5
Ti znas da znam, ja znam da znas
   F5             G5
da moc novca nema granice.
H5        D5  H5       D5
Ali razmisli, daj razmisli
   G5
za koliko ces da prodas me!


Dobrodosli u berzu bez granica,
za saku para ovde mozete prodati bas sve,
svoju bebu, ko je jebe sto je iznenada dosla,
staru vaznu tajnu vrednu svoga obraza.

Prijatelja vrednog?!
Svoj ponos, svoju cast?!
Tudje poverenje?!
Ma bas me briga prodajem!!!

Berza bez granicaaaaaaa
Tap to rate this tab
 
# A B C D E F G H I J K L M N O P Q R S T U V W X Y Z