Song name
# A B C D E F G H I J K L M N O P Q R S T U V W X Y Z

Six Pack - Ovde Je Kraj tab

Transkripcija    : Dusan Velickovic
e-mail           : velickodus@verat.net
Album            : Fabricka Greska

intro:F#5 D5

e|-----------------------------|
H|-----------------------------|    Ovo ponavljati nekoliko puta
G|-----------------------------|
D|--7-7-6-6-----6-6-7-7-6-6----|
A|----------7-7-------------7-7|
E|-----------------------------|


         F#5             D5
Ovde je kraj,rece ona ja odlazim
        E5              C#5    D5                 
mislim cemu zavaravanje kad ti vise nisi ti
 F#5           H5                      
sad ces imati vremena pa razmisli
 D5       E5                 
da li si dobio ili gubis
                              
      H5                    E5                                    
A tog je dana bila lepsa od same sebe
      F#5                  A5           
tako ozbiljna i stroga po prvi put
          D5                           
a ja sam stajao i blenuo kao kroz nju
         E5                           
iznutra razoren,spolja hladan i krut

         D5             C#5                 
Ali sam znao da stvari nikad vise nece
      A5   E5        F#5                    
biti iste kao pre,sa sobom odnela je
  H5                   C#5                     
vagon srece,tone smeha,punu sobu ljubavi
         D5                  E5              
bilo je jasno kao dan da je samnom gotovo
                         
        F#5             D5                           
"Ovde je kraj, ja odlazim"- 
 E5                  C#5    D5                                        
reci koje nikad necu moci da zaboravim 
  F#5       H5                 D5                
cesto sebe uhvatim da mastarim, 
 E5                        
gledam svoj omiljeni 

e|---------------|
H|---------------|
D|------------7--|   Ponoviti nekoliko puta 
G|------------7--|                         
A|------------5--|
E|-0-2-0-2-------|
             film      
Solo:

e|------------------------------------------------------------------------------|
H|------------------------------------------------------------------------------|
G|------------------------------------------------------------------------------|
D|--9--9-7h9h7---7---9--9-7h9h7-----9--9-7h9h7---7------------------------------|
A|-------------9----------------9--------------9----9-7-------------------------|
E|------------------------------------------------------9-7---------------------|
 
 
e|------------------------------------------------------------------------------|
H|--12-12-12-12------12-12-12---------------12-12-12-12-----14-14-14--12-12-10--|
G|---------------14------------9-11-12-14---------------14----------------------|
D|------------------------------------------------------------------------------|
A|------------------------------------------------------------------------------|
E|------------------------------------------------------------------------------|
  
e|-------------------------------------------------------|
H|--12-12-12-12------12-12-12----------------------------|
G|---------------14------------9-11-12----12--11--9------|
D|-------------------------------------------------------|
A|-------------------------------------------------------|
E|-------------------------------------------------------|

e|------------------------------------------------------------------------------|
H|--12-12-12-12------12-12-12---------------12-12-12-12-----14-14-14--12-12-10--|
G|---------------14------------9-11-12-14---------------14----------------------|
D|------------------------------------------------------------------------------|
A|------------------------------------------------------------------------------|
E|------------------------------------------------------------------------------|
                                 
e|------------------------------------------------------|
H|--12-12-12-12------12-12-12---17*---------------------|
G|---------------14-------------------------------------|
D|------------------------------------------------------|
A|------------------------------------------------------|
E|------------------------------------------------------|

legenda:

*-trill
h-hammer-on
p-pull off

Napomena:Akorde E5 svuda svirati kao xx997x,sem u 
"A tog je dana bila lepsa od same sebe" i 
"biti iste kao pre,sa sobom odnela je"
delovima,gde treba svirati E5 kao xxx220
Tap to rate this tab
 
# A B C D E F G H I J K L M N O P Q R S T U V W X Y Z