Guitaretab - guitar tabs
Song name
# A B C D E F G H I J K L M N O P Q R S T U V W X Y Z

Six Part Invention - Only For You tab

song; Only For You
band;six part invention
Tabbeb by: Joctire//

       This song is dedicated to Miss Joyces B. Cabalda,,, 
                      "Hey Cutie,, Ingatz ka lagi ah!!"
                              LOVE U ALWAYS...
                                    
       please rate po!!! maganda 2,,,   

e|-------7s9--7-6-7-6-------------------|
B|-5s7-----------------7----------------|
G|--------------------------------------|
D|--------------------------------------|
A|--------------------------------------|
E|--------------------------------------|

e|-------7s9--7-6-7-6-------------------|
B|---------------------7----------------|
G|--------------------------------------|
D|--------------------------------------|
A|--------------------------------------|
E|--------------------------------------|
[ Tab from: http://www.guitaretab.com/s/six-part-invention/156924.html ]
e|-------7s9--12-11-12-11--15-----------|
B|--------------------------------------|
G|--------------------------------------|
D|--------------------------------------|
A|--------------------------------------|
E|--------------------------------------|


E                A              E
I, I have been waitiní all my life
                  A
For someone like you
E                 A            E
You, you make me feel like I knew
               A
All because of you

REFRAIN
  B                 C#m     
Gotta make this right now, baby
  B                 C#m               A
I come and get into your life now, baby

CHORUS
      E                   B
I can be all you want me to be
             A                    B            
When everythingís falliní, Iíll still be here
           A                  B                     C#m
If your feeliní is fadiní, Iíll still be waitiní for you
 A                
Only for you

INTERLUDE

verse 2 do it like verse 1

Now, now is the right time to say
The things left unsaid
We, we can make this work for love
All because of love

[Repeat REFRAIN]
[Repeat CHORUS]

AD LIB

REFRAIN
  B                 C#m     
Gotta make this right now, baby
  B                 C#m               A
I come and get into your life now, baby

[Repeat CHORUS]

Woh woh wohh 
Related for Only For You tab