Guitaretab - guitar tabs
Song name
# A B C D E F G H I J K L M N O P Q R S T U V W X Y Z

Six Part Invention - Umaasa Lang Sayo tab

Six Part Invention  Umaasa Lang Sa'Yo
Tabbed by: Roy Jason C. De Cagayunan
Date Tabbed: 8/11/2007
Email:	cute_vash_001@yahoo.com
Standard Tuning: EBGDAE

PARA TO SA MAHAL KO NA C MARY RUTH L. CADENAS SA SAINT MACHEAL COLLEGE  CANTILAN SURIGAO DEL SUR.

NOTE: PAG GUITAR AT KINANTA NINYO TO MAKAKAIHI AND LOVE NINYO SA KILIG! YAN TOL ANG 
KO. I LOVE U RUTH PAKI RATE PLS!

Legend:
h-hammer
p-pull off
/-slide
*-bend

Sa intro pala pinag sama ko na ang piano intro pati na rin ang guitar sana magustuhan ninyo.

Intro:

E-5-5-5-5-5-3-3-3/2-----3/5-5-5-5-3-3/2-----0-2------|
B-3-3-3-3-3---------3/5-----------------3/5---3------|
G-2-2-----------------------------------------2------|
D----------------------------------------------------|
A----------------------------------------------------|
E----------------------------------------------------|

Verse: CHORDS: D9 G F#m Bm G

E-0-----------2-2-----2--------------------------------------------|
B-3--3---3----2---2---3-2--------2--------2----3---------3---------|
G-2------0----2-------4---4----2---2----2---2--4-----4-------4-----|
D-0-----------4-------4----------------------------5-------5-------|
A-------------4-------2------2--------0----------------5-----------|
E--------3----2--------------------------------3-------------------|

PRE-CHORUS: CHORDS: Bm A G Em A G

E------------------------------------------------------------0---|
B-------3-------------3-----------2----0----------0h3------2---2-|
G-----2----2--------2----2------2---2--4--------0--------2-------|
D---4--------4----4--------4--2---------------2------------------|
A-2-------------1----------------------3----2----------0---------|
E-----------------------------------------0----------------------|
continue
E----------5----|
B-------3--5----|
G-----4----6----|
D---5------0----|
A----------0----|
E-3--------5----|


CHORUS: CHORDS: G Em A G Em A D G Bm Em G
[ Tab from: http://www.guitaretab.com/s/six-part-invention/88256.html ]
E---------------------------------------------------------------------|
B-3---3--------0h3--------2--3-3p2---2---0h2----3---3----------0h3----|
G-2-2---3----0-----0----2----------2---2-----2--2-2---2------0-----0--|
D-------------------------------------------------------0-------------|
A---------------------0-----------------------------------------------|
E-3--------0------------------------------------3----------0----------|
CONTINUE
E------------2-0----------------------|
B----2-3-3-------2------3----3----3---|
G--2-------2-------2------2--2--2---2-|
D---------------------0---------------|
A-0-----------------------------------|
E----------------------------3--------|
CONTINUE
E|-------2-----------2----------------------|
B|-----3---2-------3--------0h3--------3----|
G|---4-----------4--------0-----0----2------|
D|-4-------------------------------------0--|
A|-------------2----------------------------|
E|----------------------0----------3--------|

Acoustic lead:

E|---------2-2h3-h5-5-5-5-3-3/2-2-----------0h2-0---|
B|-3-3h5-5------------------------3/5-2h3-3---------|
G|--------------------------------------------------|
D|--------------------------------------------------|
A|--------------------------------------------------|
E|--------------------------------------------------|


REPEAT:
VERSE
PRE-CHORUS
CHORUS

ADLIB:  Electric Guitar:

E|-----------2-2h3--h5--5-3h2---------------------|
B|-3-3h5-5--------------------5--3-3/2-2h0-0------|
G|-------------------------------------------2----|
D|------------------------------------------------|
A|------------------------------------------------|
E|------------------------------------------------|
CONTINUE
E|---------------------------------------9-10-12--10h12-12/15------|
B|-------------------------------8-10-12---------------------------|
G|-2-0--------------------7-9-12-----------------------------------|
D|-----4-5-5h7-5-4-----2-------------------------------------------|
A|-----------------5h7---------------------------------------------|
E|-----------------------------------------------------------------|

REPEAT:
CHORUS

Outro: lead

E|---------2-2h3-h5-5-5-5-3-3/2-2---------------3/5-5-5-5-3-3/2-|
B|-3-3h5-5------------------------3/5-3-3-2-0-------------------|
G|--------------------------------------------2-----------------|
D|--------------------------------------------------------------|
A|--------------------------------------------------------------|
E|--------------------------------------------------------------|
CONTINUE

E|------------------------2----|
B|-3/5--3-3-/2-2h0--0-----3----|
G|---------------------2--2----|   enjoy!
D|-----------------------------|
A|-----------------------------|
E|-----------------------------|


Salamat pala sa kaibigan ko tumolong sa kin sila ron-ron, mahael nag skol sa SSIT 
surigao del sur. PAKI. RATE !

LYRICS

Verse 1:
Di ko alam ang nararamdaman
Ng mawala ka at ako'y nagiisa
Hanggang ngayon 'di ka nawawala
Dito sa isip ko ika'y mahalaga

Pre-Chorus:
Ngunit pano na lang ako
Kung mawawalay ka lang
Dinggin mo ako
Nagsusumamo sa iyo

Chorus:
Muli mong pagbigyan ang puso kong ito
Naghihintay na maalala mo
Para lang sa'yo ang pagibig ko
Nasan ka man, sana ay maramdaman
Ako'y nandirito at umaasa lang sa'yo


Verse 2:same as verse 1

Kahit saan ako mapunta
Ala-ala mo'y hindi nawawala
Nais ko man, ika'y mahagkan
Sa panaginip ko na lang malalaman

[Pre-Chorus, Chorus 2x]

Umaasa lang sa'yo
Related for Umaasa Lang Sayo tab