Song name
# A B C D E F G H I J K L M N O P Q R S T U V W X Y Z

Six10repeater - Today Somehow tab

Tab By: Fede G. Campos

Tuning: Standard

Intro:
e|----------------------------------------------|
B|-6-6-6-6-6-6-6-6-6-6-6-6-6-6-6-6-6-6-6-6-6-6-6|
G|-7-7-7-7-7-7-7-7-7-7-7-7-7-7-7-7-7-7-7-7-7-7-7|
D|-7-7-7-7-7-7-7-7-7-7-7-7-7-7-7-7-7-7-7-7-7-7-7|
A|-5-5-5-5-5-5-5-5-5-5-5-5-5-5-5-5-5-5-5-5-5-5-5|
E|----------------------------------------------|



e|-------------------|-----------------------------------|
B|-------------------|-6-6-6-6-6-6-6-6-6-6-6-6-6-6-6-6-6-|
G|-7-7-7-7-7-7-7-7-7-|-7-7-7-7-7-7-7-7-7-7-7-7-7-7-7-7-7-|
D|-8-8-8-8-8-8-8-8-8-|-7-7-7-7-7-7-7-7-7-7-7-7-7-7-7-7-7-| x2
A|-8-8-8-8-8-8-8-8-8-|-5-5-5-5-5-5-5-5-5-5-5-5-5-5-5-5-5-|
E|-6-6-6-6-6-6-6-6-6-|-----------------------------------|

e|-------------------|-------------------|
B|-------------------|-------------------|
G|-4-4-4-4-4-4-4-4-4-|-6-6-6-6-6-6-6-6-6-|
D|-5-5-5-5-5-5-5-5-5-|-7-7-7-7-7-7-7-7-7-| x2
A|-5-5-5-5-5-5-5-5-5-|-7-7-7-7-7-7-7-7-7-|
E|-3-3-3-3-3-3-3-3-3-|-5-5-5-5-5-5-5-5-5-|
Tap to rate this tab
# A B C D E F G H I J K L M N O P Q R S T U V W X Y Z