Six60 - Dont Forget Your Roots tab

hey guys this is 100% correct this was given to me by ji fraser himself so i thought id 
share it with very one!

intro riff:

E----------------------------------------------------------------|
B----------------------------------------------------------------|
G----------------------------------------------------------------|      (repeat 4 times i think)
D----------------------------10----------------------------------|
A----8-8-8-8-8-8-8-8-8------------7-7-7-7-7-5-3-----------3-5-7--|
E-------------------------------8-------------------------5-5-5--|

Chords:


E-----8----------8----------3-------5------|
B----10----------8---------3-------5-------|
G----10----------9---------4-------5-------|
D----10---------10---------5-------7-------|
A----8----------10---------5-------7-------|
E----------------8----------3-------5------|
     (F)         (C)        (G)      (Am)
                   Higher
                   key C
These are the chords but the strumming rhythm you will have to figure out from listening 
coz it would be a nightmare to tab




My Intro solo goes like this:


E-------8----10--10----8---8--------------------------------------------|
B-------8----10--10----8---8--6----8--8---6-----------------------------|
G----------------------------------7----9--9---7---5---------5----------|   X2
D------------------------------------------------------7-5-7------------|
A-----------------------------------------------------------------------|
E-----------------------------------------------------------------------|


then:
                                                               (bend)
E------------------------------------8--10--10-8--10--12-10-8-----------|
B-------------------------8----8-10------------------------------10-----|
G---------------5--7--9----9--------------------------------------------|
D--------5--7-----------------------------------------------------------|
A-----------------------------------------------------------------------|
E-----------------------------------------------------------------------|

- then back to the piece above to finish it but you will be able to hear it in the song.

i take no credit for this all tabbed by the lead guitarist ji fraser!!!
enjoy
Tap to rate this tab
 
# A B C D E F G H I J K L M N O P Q R S T U V W X Y Z