Song name
# A B C D E F G H I J K L M N O P Q R S T U V W X Y Z

Six60 - Rest Of You tab

-------------------------------------------------------------------------------
                             Six60 rest of you
-------------------------------------------------------------------------------
Tabbed by:lawrence dewstow
Email:lawrencedewstow@hotmail.co.nz

Tuning:Standard tuning

e|--------------------------------2-----7---|
B|--------------9-----7-----------2-----7---|
G|-----10-10h11-11----7-----------2-----7---|
D|----------h11-11----7-----------4-----9---|
A|--------------------5-----------4-----9---|
E|-------------------------0--2---2-----7---|

e|----------------------------------------------------------------------------------|
B|----------------------------------------------------------------------------------|
G|-7-----------7-----9/11-9-7-9-7-----7-7h9-11----9/11-9-7-9-7-----7-7h9--7~~~~~----|
D|---9---7---9----------------------9---------------------------9-------------------|
A|----------------------------------------------------------------------------------|
E|----------------------------------------------------------------------------------|



************************************

| /   slide up
| \   slide down
| h   hammer-on
| p   pull-off
| ~   vibrato
| +   harmonic
| x   Mute note
| b   Bend
| pb  Pre-bend
| br  Bend release
| pbr Pre-bend release
| brb Bend release bend

************************************
Tap to rate this tab
 
# A B C D E F G H I J K L M N O P Q R S T U V W X Y Z