Song name
# A B C D E F G H I J K L M N O P Q R S T U V W X Y Z

Six60 - Green Bottles tab

Cant believe this song isnt here yet! one of my six60 favourites, this is pretty
 much what the whole song is based around however i did this in a few minutes so
 its not dead accurate but gives you a base to work around. with a song like this
 just go with what feels right. Enjoy :)

these are the chords used however i never did musical theory so i dont know the chord
 names but i can show you the formations

    1st      2nd      3rd      4th
E---3--------5--------7--------5---|x make sure you dont hit these 2 strings
A---3--------5--------7--------5---|x or itll sound too happy . lol
D---4--------6--------7--------6---|
G---5--------7--------9--------5---|
B---5--------7--------9--------7---|
E---3--------5--------7--------5---|

          1st              2nd            3rd           4th
E---------------------------------------------------------------------------|
B---------------------------------------------------------------------------|
G----------------4---------------6--------------7--------------6-h-7-6--0---|
D----------------5---------------7--------------9--------------5-----5--0---|
A---------3-h-5------------5-h-7----------7-h-9---------5-h-7---------------|
E---0-h-3------------3-sl-5--------5-sl-7---------0-h-5---------------------|


Thanks :) hope that helped
Liam
Tap to rate this tab
 
# A B C D E F G H I J K L M N O P Q R S T U V W X Y Z