Song name
# A B C D E F G H I J K L M N O P Q R S T U V W X Y Z

Six60 - Green Bottles tab

-------------------------------------------------------------------------------
                             Six60 - Green Bottles
-------------------------------------------------------------------------------
Tabbed by:
Email:

The whole song basically uses this tab with a few variants im sure you can figure out
Tuning:

e|---------------------------------------------------------------------------|
B|------------------1-------------------------3-----------------------5------|
G|------------------2-------------------------4-----------------------5------|
D|-------------3--------------------------5-----------------------7----------|
A|--------3----------------------------5-----------------------7-------------|
E|--0h1--------------------------0h3---------------------0h5-----------------|

e|---------------------------------------------------------------------------|
B|---------------3-----------------------------------------------------------|
G|------------4--------------------------------------------------------------|
D|---------5-----------------------------------------------------------------|
A|------5--------------------------------------------------------------------|
E|-0h3-----------------------------------------------------------------------|

and repeat. every few times the last step (last Chord shape) does this:
e|---------------------------------------------------------------------------|
B|-------------3-----3-------------------------------------------------------|
G|-------------4h5---4-------------------------------------------------------|
D|----------5----------------------------------------------------------------|
A|-------5-------------------------------------------------------------------|
E|--0h3----------------------------------------------------------------------|

I do the hammer-ons on the top string with my thumb over the top of the fret board 
because i have massive hands. chur
************************************

| /   slide up
| \   slide down
| h   hammer-on
| p   pull-off
| ~   vibrato
| +   harmonic
| x   Mute note
| b   Bend
| pb  Pre-bend
| br  Bend release
| pbr Pre-bend release
| brb Bend release bend

************************************
Tap to rate this tab
# A B C D E F G H I J K L M N O P Q R S T U V W X Y Z