Song name
# A B C D E F G H I J K L M N O P Q R S T U V W X Y Z

Six60 - Forever tab

Six60  forever intro
Tabbed by MopsNZ
My First tab did it by ear, sounds pretty correct to me, let me know if it's wrong. 


e |-----------------------------------------------------------------|
B |-----------------------------------------------------------------|
G |-----------------------------------------------------------------|
D |-----3--------5----------7----7-----7-----7-----10------10-------|
A |---5---5---7-----7----8----8-----8-----8----12------12-----------|
E |-----------------------------------------------------------------|

e |-----------------------------------------------------------------|
B |-----------------------------------------------------------------|
G |-----------------------------------------------------------------|
D |------10------14-----14-----14-----14------9------------14-------|
A |--12-------15-----15-----15-----15-----10-----10----15-------15--|
E |-----------------------------------------------------------------|

e|------------------------------------------------------------------|
B|------------------------------------------------------------------|
G|------------------------------------------------------------------|
D|-------9----------7-----7-----7-----7---------2---------5---------|
A|----10----10---8----8-----8------8--------3-------3---7-----7-----|
E|------------------------------------------------------------------|

e|------------------------------------------------------------------|
B|------------------------------------------------------------------|
G|------------------------------------------------------------------|
D|------5----------4----4-----4-----4----2--------5-----------------|
A|---7------7----5-----5----5-----5----3----3---7----7--------------|
E|------------------------------------------------------------------|

e|------------------------------------------------------------------|
B|------------------------------------------------------------------|
G|------------------------------------------------------------------|
D|--------4-----4----4-----4----------------------------------------|
A|-----5-----5----5-----5-------------------------------------------|
E|------------------------------------------------------------------|
REPEAT

Tap to rate this tab
 
# A B C D E F G H I J K L M N O P Q R S T U V W X Y Z