Song name
# A B C D E F G H I J K L M N O P Q R S T U V W X Y Z

Sixer - Truckstop Jesus tab

Standard Tuning: EADGBe




   Intro
e|----------------------------------------|
b|----------------------------------------|
g|----------------------------------------|
d|--------------5-------8-------3---------|
a|----------5---5-(x16)-8-(x16)-3-(x16)---|
e|--8-8-6\3--6--3-------6-------1---------|


   Verse
e|----------------|---------------------------------|
b|----------------|---------------------------------|
g|----------------|-------------------------5-------|
d|----------------|-5-------8-------3-------5-(x16)-| (x4)
a|----------5-----|-5-(x16)-8-(x16)-3-(x16)-3-------|
e|--8-8-6\3--6----|-3-------6-------1---------------|
 (only first time)


   Chorus
e|---------------------------------|
b|---------------------------------|
g|-------------------------5-------|
d|-5-------8-------3-------5-(x12)-| (x4)
a|-5-(x12)-8-(x12)-3-(x12)-3-------|
e|-3-------6-------1---------------|


   Verse
e|---------------------------------|
b|---------------------------------|
g|-------------------------5-------|
d|-5-------8-------3-------5-(x16)-| (x4)
a|-5-(x16)-8-(x16)-3-(x16)-3-------|
e|-3-------6-------1---------------|


   Chorus
e|---------------------------------|
b|---------------------------------|
g|-------------------------5-------|
d|-5-------8-------3-------5-(x12)-| (x4)
a|-5-(x12)-8-(x12)-3-(x12)-3-------|
e|-3-------6-------1---------------|


   Bridge
e|---------------------------------|
b|---------------------------------|
d|---------------------------------|
g|-55*--x55*--x55*-x---------------|(x4)
a|-55*--x55*--x55*-x--------5------|
e|-33*--x33*--x33*-x8-8-6/3--6-----|
   (on the "*" pull up your finger the fretted strings
     for the harmonic sound he gets in the song.)


Sorry, i didnt have time to finish the solo ..ill try 
to get it up for you guys later


   Chorus
e|---------------------------------|
b|---------------------------------|
d|-------------------------5-------|
g|-5-------8-------3-------5-(x12)-| (x8)
a|-5-(x12)-8-(x12)-3-(x12)-3-------|
e|-3-------6-------1---------------|


   Outro
e|--------------------|
b|--------------------|
d|--------------------|
g|-55*--x55*--x55*-x5-|
a|-55*--x55*--x55*-x5-|
e|-33*--x33*--x33*-x3-|
    

http://www.sixermusic.co.uk/
Tap to rate this tab
 
# A B C D E F G H I J K L M N O P Q R S T U V W X Y Z