Song name
# A B C D E F G H I J K L M N O P Q R S T U V W X Y Z

Sixpence None The Richer - Kiss Me tab

Title: Kiss Me
Band/Artist: Sixpence None The Richer

rate nio pls..tnx..enjoy lang po..
timz_unix30@yahoo.com

eto po yung guitar1,next meron din guitar 2.
sinama ko na din po yung vocals..^^,
meron din po lyrics..

guitar 1 =capo 3rd fret
guitar 2 =capo 1st fret

Acoustic Guitar 1 (Capo 3)


     E  E  E.  E  S E  E  S S    S S E  E.  E  S E  E  S S  
E||--0--0--0---0----0--0--0---|--0-0-0--0---0--0-0--0--0-0-|
B||--1--1--1---1--1-1--1--1-1-|--0-0-0--0---0--0-0--0--0-0-|
G||--0--0--0---0--0-0--0--0-0-|--0-0-0--0---0--0-0--0--0-0-|
D||--2--2--2---2--2-2--2--2-2-|--2---2--2---2----2--2--2---|
A||--3--3--3---3----3--3--3---|--3---3--3---3----3--3--3---|
E||---------------------------|----------------------------|


  S S E  E.  E  S E  E  S S    S S E  E.  E  S E  E  S S  
----------------------------|--0-0-0--0---0--0-0--0--0-0-|
--1-1-1--1---1--1-1--1--1-1-|--0-0-0--0---0--0-0--0--0-0-|
--3-3-3--3---3--3-3--3--3-3-|--0-0-0--0---0--0-0--0--0-0-|
--2-2-2--2---2--2-2--2--2-2-|--2---2--2---2----2--2--2---|
--3---3--3---3----3--3--3---|--3---3--3---3----3--3--3---|
----------------------------|----------------------------|


  E  E  E.  E  S E  E  S S    S S E  E.  E  S E  E  S S  
--0--0--0---0----0--0--0---|--0-0-0--0---0--0-0--0--0-0-|
--1--1--1---1--1-1--1--1-1-|--0-0-0--0---0--0-0--0--0-0-|
--0--0--0---0--0-0--0--0-0-|--0-0-0--0---0--0-0--0--0-0-|
--2--2--2---2--2-2--2--2-2-|--2---2--2---2----2--2--2---|
--3--3--3---3----3--3--3---|--3---3--3---3----3--3--3---|
---------------------------|----------------------------|


  S S E  E.  E  S E  E  S S    S S E  E.  E  S E  E  S S  
----------------------------|--0-0-0--0---0--0-0--0--0-0-|
--1-1-1--1---1--1-1--1--1-1-|--0-0-0--0---0--0-0--0--0-0-|
--3-3-3--3---3--3-3--3--3-3-|--0-0-0--0---0--0-0--0--0-0-|
--2-2-2--2---2--2-2--2--2-2-|--2---2--2---2----2--2--2---|
--3---3--3---3----3--3--3---|--3---3--3---3----3--3--3---|
----------------------------|----------------------------|


  E  E  E.  E  S E  E  S S    S S E  E.  E  S E  E  S S  
--0--0--0---0----0--0--0---|--0-0-0--0---0--0-0--0--0-0-|
--1--1--1---1--1-1--1--1-1-|--0-0-0--0---0--0-0--0--0-0-|
--0--0--0---0--0-0--0--0-0-|--0-0-0--0---0--0-0--0--0-0-|
--2--2--2---2--2-2--2--2-2-|--2---2--2---2----2--2--2---|
--3--3--3---3----3--3--3---|--3---3--3---3----3--3--3---|
---------------------------|----------------------------|


  S S E  E.  E  S E  E  S S    S S E  E.  E  S E  E  S S  
----------------------------|--0-0-0--0---0--0-0--0--0-0-|
--1-1-1--1---1--1-1--1--1-1-|--0-0-0--0---0--0-0--0--0-0-|
--3-3-3--3---3--3-3--3--3-3-|--0-0-0--0---0--0-0--0--0-0-|
--2-2-2--2---2--2-2--2--2-2-|--2---2--2---2----2--2--2---|
--3---3--3---3----3--3--3---|--3---3--3---3----3--3--3---|
----------------------------|----------------------------|


  E  E  E.  E  S E  E  S S    S S E  E.  E  S E  E  S S  
--0--0--0---0----0--0--0---|--0-0-0--0---0--0-0--0--0-0-|
--1--1--1---1--1-1--1--1-1-|--0-0-0--0---0--0-0--0--0-0-|
--0--0--0---0--0-0--0--0-0-|--0-0-0--0---0--0-0--0--0-0-|
--2--2--2---2--2-2--2--2-2-|--2---2--2---2----2--2--2---|
--3--3--3---3----3--3--3---|--3---3--3---3----3--3--3---|
---------------------------|----------------------------|


  S S E  E.  E  S E  E  S S    S S E  E.  E  S E  E  S S  
----------------------------|--0-0-0--0---0--0-0--0--0-0-|
--1-1-1--1---1--1-1--1--1-1-|--1-1-1--1---1--1-1--1--1-1-|
--3-3-3--3---3--3-3--3--3-3-|--2-2-2--2---2--2-2--2--2-2-|
--2-2-2--2---2--2-2--2--2-2-|--3-3-3--3---3----3--3--3---|
--3---3--3---3----3--3--3---|----------------------------|
----------------------------|--1---1--1---1----1--1--1---|


  S S E  E.  E  S E  E  S S    S S E  E.  E  S E  E  S S  
--1-1-1--1---3--3-3--3--3-3-|--0-0-0--0---0--0-0--0--0-0-|
--3-3-3--3---3--3-3--3--3-3-|--1-1-1--1---1--1-1--1--1-1-|
--2-2-2--2---4--4-4--4--4-4-|--0-0-0--0---0--0-0--0--0-0-|
--3-3-3--3---5--5-5--5--5-5-|--2-2-2--2---2--2-2--2--2-2-|
-------------5--5-5--5--5-5-|--3---3--3---0----0--0--0---|
-------------3----3--3--3---|----------------------------|


  S S E  E.  E  S E  E  S S    S S E  E.  E  S E  E  S S  
--1-1-1--1---3--3-3--3--3-3-|--0-0-0--0------------------|
--3-3-3--3---3--3-3--3--3-3-|--1-1-1--1---1--1-1--1--1-1-|
--2-2-2--2---4--4-4--4--4-4-|--0-0-0--0---3--3-3--3--3-3-|
--3-3-3--3---5--5-5--5--5-5-|--2-2-2--2---2--2-2--2--2-2-|
-------------5--5-5--5--5-5-|--3---3--3---3----3--3--3---|
-------------3----3--3--3---|----------------------------|


  S S E  E.  E  S E  E  S S    S S E  E.  E  S E  E  S S  
--1-1-1--1---3--3-3--3--3-3-|----------------------------|
--3-3-3--3---3--3-3--3--3-3-|--1-1-3--3---1--1-3--3--1-1-|
--2-2-2--2---4--4-4--4--4-4-|--0-0-0--0---0--0-0--0--0-0-|
--3-3-3--3---5--5-5--5--5-5-|--2-2-2--2---2--2-2--2--2---|
-------------5--5-5--5--5-5-|--3---3--3---2----2--2--2---|
-------------3----3--3--3---|----------------------------|


                                                     ^    ^    ^         
  S S E  E.  E  S E  E  S S    Q    H        Q       Q    Q    H         
----------------------------|--0------------------|---------------------|
--1-1-3--3---1--1-3--3--1-1-|--1------------------|--3----3----3--------|
--0-0-0--0---0--0-0--0--0-0-|--2------------------|--5----5----4--------|
--2---2--2---2--2-2--2--2---|--3------------------|--5----5----5--------|
--0---0--0---x----x--x--x---|---------------------|--5----5----5--------|
-------------3----3--3--3---|--1------------------|--3----3----3--------|


  S S E  E.  E  S E  E  S S    S S E  E.  E  S E  E  S S  
--0-0-0--0---0--0-0--0--0-0-|--0-0-0--0---0--0-0--0--0-0-|
--1-1-1--1---1--1-1--1--1-1-|--0-0-0--0---0--0-0--0--0-0-|
--0-0-0--0---0--0-0--0--0-0-|--0-0-0--0---0--0-0--0--0-0-|
--2---2--2---2----2--2--2---|--2---2--2---2----2--2--2---|
--3---3--3---3----3--3--3---|--3---3--3---3----3--3--3---|
----------------------------|----------------------------|


  S S E  E.  E  S E  E  S S    S S E  E.  E  S E  E  E   
----------------------------|--0-0-0--0---0--0-0--0-----|
--1-1-1--1---1--1-1--1--1-1-|--0-0-0--0---0--0-0--0-----|
--3-3-3--3---3--3-3--3--3-3-|--0-0-0--0---0--0-0--0-----|
--2-2-2--2---2--2-2--2--2-2-|--2---2--2---2----2--2-----|
--3---3--3---3----3--3--3---|--3---3--3---3----3--3-----|
----------------------------|---------------------------|


  S S E  E.  E  S E  E  S S    S S E  E.  E  S E  E  S S  
--0-0-0--0---0--0-0--0--0-0-|--0-0-0--0---0--0-0--0--0-0-|
--1-1-1--1---1--1-1--1--1-1-|--0-0-0--0---0--0-0--0--0-0-|
--0-0-0--0---0--0-0--0--0-0-|--0-0-0--0---0--0-0--0--0-0-|
--2---2--2---2----2--2--2---|--2---2--2---2----2--2--2---|
--3---3--3---3----3--3--3---|--3---3--3---3----3--3--3---|
----------------------------|----------------------------|


  S S E  E.  E  S E  E  S S    S S E  E.  E  S E  E  S S  
----------------------------|--0-0-0--0---0--0-0--0--0-0-|
--1-1-1--1---1--1-1--1--1-1-|--0-0-0--0---0--0-0--0--0-0-|
--3-3-3--3---3--3-3--3--3-3-|--0-0-0--0---0--0-0--0--0-0-|
--2-2-2--2---2--2-2--2--2-2-|--2---2--2---2----2--2--2---|
--3---3--3---3----3--3--3---|--3---3--3---3----3--3--3---|
----------------------------|----------------------------|


  S S E  E.  E  S E  E  S S    S S E  E.  E  S E  E  S S  
--0-0-0--0---0--0-0--0--0-0-|--0-0-0--0---0--0-0--0--0-0-|
--1-1-1--1---1--1-1--1--1-1-|--0-0-0--0---0--0-0--0--0-0-|
--0-0-0--0---0--0-0--0--0-0-|--0-0-0--0---0--0-0--0--0-0-|
--2---2--2---2----2--2--2---|--2---2--2---2----2--2--2---|
--3---3--3---3----3--3--3---|--3---3--3---3----3--3--3---|
----------------------------|----------------------------|


  S S E  E.  E  S E  E  S S    S S E  E.  E  S E  E  S S  
----------------------------|--0-0-0--0---0--0-0--0--0-0-|
--1-1-1--1---1--1-1--1--1-1-|--1-1-1--1---1--1-1--1--1-1-|
--3-3-3--3---3--3-3--3--3-3-|--2-2-2--2---2--2-2--2--2-2-|
--2-2-2--2---2--2-2--2--2-2-|--3-3-3--3---3----3--3--3---|
--3---3--3---3----3--3--3---|----------------------------|
----------------------------|--1---1--1---1----1--1--1---|


  S S E  E.  E  S E  E  S S    S S E  E.  E  S E  E  S S  
--1-1-1--1---3--3-3--3--3-3-|--0-0-0--0---0--0-0--0--0-0-|
--3-3-3--3---3--3-3--3--3-3-|--1-1-1--1---1--1-1--1--1-1-|
--2-2-2--2---4--4-4--4--4-4-|--0-0-0--0---0--0-0--0--0-0-|
--3-3-3--3---5--5-5--5--5-5-|--2-2-2--2---2--2-2--2--2-2-|
-------------5--5-5--5--5-5-|--3---3--3---0----0--0--0---|
-------------3----3--3--3---|----------------------------|


  S S E  E.  E  S E  E  S S    S S E  E.  E  S E  E  S S  
--1-1-1--1---3--3-3--3--3-3-|--0-0-0--0------------------|
--3-3-3--3---3--3-3--3--3-3-|--1-1-1--1---1--1-1--1--1-1-|
--2-2-2--2---4--4-4--4--4-4-|--0-0-0--0---3--3-3--3--3-3-|
--3-3-3--3---5--5-5--5--5-5-|--2-2-2--2---2--2-2--2--2-2-|
-------------5--5-5--5--5-5-|--3---3--3---3----3--3--3---|
-------------3----3--3--3---|----------------------------|


  S S E  E.  E  S E  E  S S    S S E  E.  E  S E  E  S S  
--1-1-1--1---3--3-3--3--3-3-|----------------------------|
--3-3-3--3---3--3-3--3--3-3-|--1-1-3--3---1--1-3--3--1-1-|
--2-2-2--2---4--4-4--4--4-4-|--0-0-0--0---0--0-0--0--0-0-|
--3-3-3--3---5--5-5--5--5-5-|--2-2-2--2---2--2-2--2--2---|
-------------5--5-5--5--5-5-|--3---3--3---2----2--2--2---|
-------------3----3--3--3---|----------------------------|


                                                     ^    ^    ^         
  S S E  E.  E  S E  E  S S    Q    H        Q       Q    Q    H         
----------------------------|--0------------------|---------------------|
--1-1-3--3---1--1-3--3--1-1-|--1------------------|--3----3----3--------|
--0-0-0--0---0--0-0--0--0-0-|--2------------------|--5----5----4--------|
--2---2--2---2--2-2--2--2---|--3------------------|--5----5----5--------|
--0---0--0---x----x--x--x---|---------------------|--5----5----5--------|
-------------3----3--3--3---|--1------------------|--3----3----3--------|


  E  E  E  Q    E  E  E     E  E  E  Q    E  E  E     E  E  E  Q    E  E  E   
-----------0----------0--|-----------0----------0--|-----------0----------0--|
-----1----------1--------|-----0----------0--------|-------------------------|
--------0----------0-----|--------0----------0-----|-----3--0-------3--0-----|
-------------------------|-------------------------|-------------------------|
--3----------------------|--3----------------------|--3----------------------|
-------------------------|-------------------------|-------------------------|


  E  E  E  Q    E  E  E     S S E  E.  E  S E  E  S S  
-----------0-------------|--1-1-1--1---3--3-3--3--3-3-|
-----0----------0--------|--3-3-3--3---3--3-3--3--3-3-|
--------0----------0-----|--2-2-2--2---4--4-4--4--4-4-|
-------------------------|--3-3-3--3---5--5-5--5--5-5-|
--3----------------------|-------------5--5-5--5--5-5-|
-------------------------|-------------3----3--3--3---|


  S S E  E.  E  S E  E  S S    S S E  E.  E  S E  E  S S  
--0-0-0--0---0--0-0--0--0-0-|--1-1-1--1---3--3-3--3--3-3-|
--1-1-1--1---1--1-1--1--1-1-|--3-3-3--3---3--3-3--3--3-3-|
--0-0-0--0---0--0-0--0--0-0-|--2-2-2--2---4--4-4--4--4-4-|
--2-2-2--2---2--2-2--2--2-2-|--3-3-3--3---5--5-5--5--5-5-|
--3---3--3---0----0--0--0---|-------------5--5-5--5--5-5-|
----------------------------|-------------3----3--3--3---|


  S S E  E.  E  S E  E  S S    S S E  E.  E  S E  E  S S  
--0-0-0--0------------------|--1-1-1--1---3--3-3--3--3-3-|
--1-1-1--1---1--1-1--1--1-1-|--3-3-3--3---3--3-3--3--3-3-|
--0-0-0--0---3--3-3--3--3-3-|--2-2-2--2---4--4-4--4--4-4-|
--2-2-2--2---2--2-2--2--2-2-|--3-3-3--3---5--5-5--5--5-5-|
--3---3--3---3----3--3--3---|-------------5--5-5--5--5-5-|
----------------------------|-------------3----3--3--3---|


  S S E  E.  E  S E  E  S S    S S E  E.  E  S E  E  S S  
--0-0-0--0---0--0-0--0--0-0-|--1-1-1--1---3--3-3--3--3-3-|
--1-1-1--1---1--1-1--1--1-1-|--3-3-3--3---3--3-3--3--3-3-|
--0-0-0--0---0--0-0--0--0-0-|--2-2-2--2---4--4-4--4--4-4-|
--2-2-2--2---2--2-2--2--2-2-|--3-3-3--3---5--5-5--5--5-5-|
--3---3--3---0----0--0--0---|-------------5--5-5--5--5-5-|
----------------------------|-------------3----3--3--3---|


  S S E  E.  E  S E  E  S S    S S E  E.  E  S E  E  S S  
--0-0-0--0------------------|--1-1-1--1---3--3-3--3--3-3-|
--1-1-1--1---1--1-1--1--1-1-|--3-3-3--3---3--3-3--3--3-3-|
--0-0-0--0---3--3-3--3--3-3-|--2-2-2--2---4--4-4--4--4-4-|
--2-2-2--2---2--2-2--2--2-2-|--3-3-3--3---5--5-5--5--5-5-|
--3---3--3---3----3--3--3---|-------------5--5-5--5--5-5-|
----------------------------|-------------3----3--3--3---|


  S S E  E.  E  S E  E  S S    S S E  E.  E  S E  E  S S    Q    H        Q     
----------------------------|----------------------------|--0------------------|
--1-1-3--3---1--1-3--3--1-1-|--1-1-3--3---1--1-3--3--1-1-|--1------------------|
--0-0-0--0---0--0-0--0--0-0-|--0-0-0--0---0--0-0--0--0-0-|--2------------------|
--2-2-2--2---2--2-2--2--2---|--2---2--2---2--2-2--2--2---|--3------------------|
--3---3--3---2----2--2--2---|--0---0--0---x----x--x--x---|---------------------|
----------------------------|-------------3----3--3--3---|--1------------------|


  ^    ^    ^                                                                   
  Q    Q    H           S S E  E.  E  S E  E  S S    S S E  E.  E  S E  E  S S  
---------------------|--0-0-0--0---0--0-0--0--0-0-|--0-0-0--0---0--0-0--0--0-0-|
--3----3----3--------|--1-1-1--1---1--1-1--1--1-1-|--0-0-0--0---0--0-0--0--0-0-|
--5----5----4--------|--0-0-0--0---0--0-0--0--0-0-|--0-0-0--0---0--0-0--0--0-0-|
--5----5----5--------|--2---2--2---2----2--2--2---|--2---2--2---2----2--2--2---|
--5----5----5--------|--3---3--3---3----3--3--3---|--3---3--3---3----3--3--3---|
--3----3----3--------|----------------------------|----------------------------|


  S S E  E.  E  S E  E  S S    S S E  E.  E  S E  E  S S  
----------------------------|--0-0-0--0---0--0-0--0--0-0-|
--1-1-1--1---1--1-1--1--1-1-|--0-0-0--0---0--0-0--0--0-0-|
--3-3-3--3---3--3-3--3--3-3-|--0-0-0--0---0--0-0--0--0-0-|
--5-5-5--5---5--5-5--5--5-5-|--2---2--2---2----2--2--2---|
--3---3--3---3----3--3--3---|--3---3--3---3----3--3--3---|
----------------------------|----------------------------|


  S S E  E.  E  S E  E  S S    S S E  E.  E  S E  E  S S  
--0-0-0--0---0--0-0--0--0-0-|--0-0-0--0---0--0-0--0--0-0-|
--1-1-1--1---1--1-1--1--1-1-|--0-0-0--0---0--0-0--0--0-0-|
--0-0-0--0---0--0-0--0--0-0-|--0-0-0--0---0--0-0--0--0-0-|
--2---2--2---2----2--2--2---|--2---2--2---2----2--2--2---|
--3---3--3---3----3--3--3---|--3---3--3---3----3--3--3---|
----------------------------|----------------------------|


  S S E  E.  E  S E  E  S S    S S E  E.  E  S E  E  S S  
----------------------------|--0-0-0--0---0--0-0--0--0-0-|
--1-1-1--1---1--1-1--1--1-1-|--0-0-0--0---0--0-0--0--0-0-|
--3-3-3--3---3--3-3--3--3-3-|--0-0-0--0---0--0-0--0--0-0-|
--5-5-5--5---5--5-5--5--5-5-|--2---2--2---2----2--2--2---|
--3---3--3---3----3--3--3---|--3---3--3---3----3--3--3---|
----------------------------|----------------------------|


  S S E  E.  E  S E  E  S S    S S E  E.  E  S E  E  S S  
--0-0-0--0---0--0-0--0--0-0-|--0-0-0--0---0--0-0--0--0-0-|
--1-1-1--1---1--1-1--1--1-1-|--0-0-0--0---0--0-0--0--0-0-|
--0-0-0--0---0--0-0--0--0-0-|--0-0-0--0---0--0-0--0--0-0-|
--2---2--2---2----2--2--2---|--2---2--2---2----2--2--2---|
--3---3--3---3----3--3--3---|--3---3--3---3----3--3--3---|
----------------------------|----------------------------|


  S S E  E.  E  S E  E  S S    S S E  E.  E  S E  E  S S  
----------------------------|--0-0-0--0---0--0-0--0--0-0-|
--1-1-1--1---1--1-1--1--1-1-|--0-0-0--0---0--0-0--0--0-0-|
--3-3-3--3---3--3-3--3--3-3-|--0-0-0--0---0--0-0--0--0-0-|
--5-5-5--5---5--5-5--5--5-5-|--2---2--2---2----2--2--2---|
--3---3--3---3----3--3--3---|--3---3--3---3----3--3--3---|
----------------------------|----------------------------|


  S S E  E.  E  S E  E  S S    S S E  E.  E  S E  E  S S  
--0-0-0--0---0--0-0--0--0-0-|--0-0-0--0---0--0-0--0--0-0-|
--1-1-1--1---1--1-1--1--1-1-|--0-0-0--0---0--0-0--0--0-0-|
--0-0-0--0---0--0-0--0--0-0-|--0-0-0--0---0--0-0--0--0-0-|
--2---2--2---2----2--2--2---|--2---2--2---2----2--2--2---|
--3---3--3---3----3--3--3---|--3---3--3---3----3--3--3---|
----------------------------|----------------------------|


                                                            ^                 
  S S E  E.  E  S E  E  S S    S S E  E.  E  S E  E  S S    W                 
----------------------------|--0-0-0--0---0--0-0--0--0-0-|--0----------------|
--1-1-1--1---1--1-1--1--1-1-|--0-0-0--0---0--0-0--0--0-0-|--1----------------|
--3-3-3--3---3--3-3--3--3-3-|--0-0-0--0---0--0-0--0--0-0-|--0----------------|
--5-5-5--5---5--5-5--5--5-5-|--2---2--2---2----2--2--2---|--2----------------|
--3---3--3---3----3--3--3---|--3---3--3---3----3--3--3---|--3----------------|
----------------------------|----------------------------|-------------------|

  W                  
--L----------------||
--L----------------||
--L----------------||
--L----------------||
--L----------------||
-------------------||



Acoustic Guitar 2 (Capo 1)


     E  E  E.  S S S E  E  S S    S S E  E.  S S S E  E  S S  
E||--2--2--2---2-L-2-2--2--2-2-|--2-2-2--2---2-L-2-2--2--2-2-|
B||--3--3--3---3-L-3-3--3--3-3-|--2-2-2--2---2-L-2-2--2--2-2-|
G||--2--2--2---2-L-2-2--2--2-2-|--2-2-2--2---2-L-2-2--2--2-2-|
D||--0--0--0---0-L---0--0--0---|--0---0--0---0-L---0--0--0---|
A||----------------------------|-----------------------------|
E||----------------------------|-----------------------------|


  S S E  E.  S S S E  E  S S    S S E  E.  S S S E  E  S S  
--2-2-2--2---2-L-2-2--2--2-2-|--2-2-2--2---2-L-2-2--2--2-2-|
--1-1-1--1---1-L-1-1--1--1-1-|--2-2-2--2---2-L-2-2--2--2-2-|
--2-2-2--2---2-L-2-2--2--2-2-|--2-2-2--2---2-L-2-2--2--2-2-|
--0---0--0---0-L---0--0--0---|--0---0--0---0-L---0--0--0---|
-----------------------------|-----------------------------|
-----------------------------|-----------------------------|


  S S E  E.  S S S E  E  S S    S S E  E.  S S S E  E  S S  
--2-2-2--2---2-L-2-2--2--2-2-|--2-2-2--2---2-L-2-2--2--2-2-|
--3-3-3--3---3-L-3-3--3--3-3-|--2-2-2--2---2-L-2-2--2--2-2-|
--2-2-2--2---2-L-2-2--2--2-2-|--2-2-2--2---2-L-2-2--2--2-2-|
--0---0--0---0-L---0--0--0---|--0---0--0---0-L---0--0--0---|
-----------------------------|-----------------------------|
-----------------------------|-----------------------------|


  S S E  E.  S S S E  E  S S    S S E  E.  S S S E  E  S S  
--2-2-2--2---2-L-2-2--2--2-2-|--2-2-2--2---2-L-2-2--2--2-2-|
--1-1-1--1---1-L-1-1--1--1-1-|--2-2-2--2---2-L-2-2--2--2-2-|
--2-2-2--2---2-L-2-2--2--2-2-|--2-2-2--2---2-L-2-2--2--2-2-|
--0---0--0---0-L---0--0--0---|--0---0--0---0-L---0--0--0---|
-----------------------------|-----------------------------|
-----------------------------|-----------------------------|


  S S E  E.  S S S E  E  S S    S S E  E.  S S S E  E  S S  
--2-2-2--2---2-L-2-2--2--2-2-|--2-2-2--2---2-L-2-2--2--2-2-|
--3-3-3--3---3-L-3-3--3--3-3-|--2-2-2--2---2-L-2-2--2--2-2-|
--2-2-2--2---2-L-2-2--2--2-2-|--2-2-2--2---2-L-2-2--2--2-2-|
--0---0--0---0-L---0--0--0---|--0---0--0---0-L---0--0--0---|
-----------------------------|-----------------------------|
-----------------------------|-----------------------------|


  S S E  E.  S S S E  E  S S    S S E  E.  S S S E  E  S S  
--2-2-2--2---2-L-2-2--2--2-2-|--2-2-2--2---2-L-2-2--2--2-2-|
--1-1-1--1---1-L-1-1--1--1-1-|--2-2-2--2---2-L-2-2--2--2-2-|
--2-2-2--2---2-L-2-2--2--2-2-|--2-2-2--2---2-L-2-2--2--2-2-|
--0---0--0---0-L---0--0--0---|--0---0--0---0-L---0--0--0---|
-----------------------------|-----------------------------|
-----------------------------|-----------------------------|


  S S E  E.  S S S E  E  S S    S S E  E.  S S S E  E  S S  
--2-2-2--2---2-L-2-2--2--2-2-|--2-2-2--2---2-L-2-2--2--2-2-|
--3-3-3--3---3-L-3-3--3--3-3-|--2-2-2--2---2-L-2-2--2--2-2-|
--2-2-2--2---2-L-2-2--2--2-2-|--2-2-2--2---2-L-2-2--2--2-2-|
--0---0--0---0-L---0--0--0---|--0---0--0---0-L---0--0--0---|
-----------------------------|-----------------------------|
-----------------------------|-----------------------------|


  S S E  E.  S S S E  E  S S    S S E  E.  S S S E  E  S S  
--2-2-2--2---2-L-2-2--2--2-2-|--2-2-2--2---2-L-2-2--2--2-2-|
--1-1-1--1---1-L-1-1--1--1-1-|--3-3-3--3---3-L-3-3--3--3-3-|
--2-2-2--2---2-L-2-2--2--2-2-|--4-4-4--4---4-L-4-4--4--4-4-|
--0---0--0---0-L---0--0--0---|--0---0--0---0-L---0--0--0---|
-----------------------------|-----------------------------|
-----------------------------|--3---3--3---3-L---3--3--3---|


  S S E  E.  S S S E  E  S S    S S E  E.  S S S E  E  S S  
--0-0-0--0---0-L-0-0--0--0-0-|--2-2-2--2---2-L-2-2--2--2-2-|
--0-0-0--0---2-L-2-2--2--2-2-|--3-3-3--3---3-L-3-3--3--3-3-|
--0-0-0--0---2-L-2-2--2--2-2-|--2-2-2--2---2-L-2-2--2--2-2-|
--2---2--2---2-L---2--2--2---|--0---0--0---x-L---x--x--x---|
--2---2--2---0-L---0--0------|-------------2-L---2--2--2---|
--0---0--0-------------------|-----------------------------|


  S S E  E.  S S S E  E  S S    S S E  E.  S S S E  E  S S  
--0-0-0--0---0-L-0-0--0--0-0-|--2-2-2--2---2-L-2-2--2--2-2-|
--0-0-0--0---2-L-2-2--2--2-2-|--3-3-3--3---1-L-1-1--1--1-1-|
--0-0-0--0---2-L-2-2--2--2-2-|--2-2-2--2---2-L-2-2--2--2-2-|
--2---2--2---2-L---2--2--2---|--0---0--0---0-L---0--0--0---|
--2---2--2---0-L---0--0------|-----------------------------|
--0---0--0-------------------|-----------------------------|


  S S E  E.  S S S E  E  S S    S S E  E.  S S S E  E  S S  
--0-0-0--0---0-L-0-0--0--0-0-|--2-2-2--2---0-L-0-0--0--0-0-|
--0-0-0--0---2-L-2-2--2--2-2-|--3-3-3--3---3-L-3-3--3--3-3-|
--0-0-0--0---2-L-2-2--2--2-2-|--2-2-2--2---2-L-2-2--2--2-2-|
--2---2--2---2-L---2--2--2---|--0---0--0---x-L---x--x--x---|
--2---2--2---0-L---0--0------|-------------4-L---4--4------|
--0---0--0-------------------|-----------------------------|


                                                         ^    ^    ^         
  S S E  E.  S S S E  E  S S    E  E  E  Q    Q    E     Q    Q    H         
--0-0-0--0-------------------|-----------2------------|--0----0----0--------|
--3-3-3--3---3-L-3-3--2--2-2-|-----0--3-------3-------|--3----3----2--------|
--2-2-2--2---2-L-2-2--2--2-2-|--0------------------2--|--2----2----2--------|
--0---0--0---0-L-0-0--0--0-0-|------------------------|--2----2----2--------|
--2---2--2---0-L---0--0------|------------------------|--0----0----0--------|
-----------------------------|------------------------|---------------------|


  S S E  E.  S S S E  E  S S    S S E  E.  S S S E  E  S S  
--2-2-2--2---2-L-2-2--2--2-2-|--2-2-2--2---2-L-2-2--2--2-2-|
--3-3-3--3---3-L-3-3--3--3-3-|--2-2-2--2---2-L-2-2--2--2-2-|
--2-2-2--2---2-L-2-2--2--2-2-|--2-2-2--2---2-L-2-2--2--2-2-|
--0---0--0---0-L---0--0--0---|--0---0--0---0-L---0--0--0---|
-----------------------------|-----------------------------|
-----------------------------|-----------------------------|


  S S E  E.  S S S E  E  S S    S S E  E.  S S S E  E  E   
--2-2-2--2---2-L-2-2--2--2-2-|--2-2-2--2---2-L-2-2--2-----|
--1-1-1--1---1-L-1-1--1--1-1-|--2-2-2--2---2-L-2-2--2-----|
--2-2-2--2---2-L-2-2--2--2-2-|--2-2-2--2---2-L-2-2--2-----|
--0---0--0---0-L---0--0--0---|--0---0--0---0-L---0--0-----|
-----------------------------|----------------------------|
-----------------------------|----------------------------|


  S S E  E.  S S S E  E  S S    S S E  E.  S S S E  E  S S  
--2-2-2--2---2-L-2-2--2--2-2-|--2-2-2--2---2-L-2-2--2--2-2-|
--3-3-3--3---3-L-3-3--3--3-3-|--2-2-2--2---2-L-2-2--2--2-2-|
--2-2-2--2---2-L-2-2--2--2-2-|--2-2-2--2---2-L-2-2--2--2-2-|
--0---0--0---0-L---0--0--0---|--0---0--0---0-L---0--0--0---|
-----------------------------|-----------------------------|
-----------------------------|-----------------------------|


  S S E  E.  S S S E  E  S S    S S E  E.  S S S E  E  S S  
--2-2-2--2---2-L-2-2--2--2-2-|--2-2-2--2---2-L-2-2--2--2-2-|
--1-1-1--1---1-L-1-1--1--1-1-|--2-2-2--2---2-L-2-2--2--2-2-|
--2-2-2--2---2-L-2-2--2--2-2-|--2-2-2--2---2-L-2-2--2--2-2-|
--0---0--0---0-L---0--0--0---|--0---0--0---0-L---0--0--0---|
-----------------------------|-----------------------------|
-----------------------------|-----------------------------|


  S S E  E.  S S S E  E  S S    S S E  E.  S S S E  E  S S  
--2-2-2--2---2-L-2-2--2--2-2-|--2-2-2--2---2-L-2-2--2--2-2-|
--3-3-3--3---3-L-3-3--3--3-3-|--2-2-2--2---2-L-2-2--2--2-2-|
--2-2-2--2---2-L-2-2--2--2-2-|--2-2-2--2---2-L-2-2--2--2-2-|
--0---0--0---0-L---0--0--0---|--0---0--0---0-L---0--0--0---|
-----------------------------|-----------------------------|
-----------------------------|-----------------------------|


  S S E  E.  S S S E  E  S S    S S E  E.  S S S E  E  S S  
--2-2-2--2---2-L-2-2--2--2-2-|--2-2-2--2---2-L-2-2--2--2-2-|
--1-1-1--1---1-L-1-1--1--1-1-|--3-3-3--3---3-L-3-3--3--3-3-|
--2-2-2--2---2-L-2-2--2--2-2-|--4-4-4--4---4-L-4-4--4--4-4-|
--0---0--0---0-L---0--0--0---|--0---0--0---0-L---0--0--0---|
-----------------------------|-----------------------------|
-----------------------------|--3---3--3---3-L---3--3--3---|


  S S E  E.  S S S E  E  S S    S S E  E.  S S S E  E  S S  
--0-0-0--0---0-L-0-0--0--0-0-|--2-2-2--2---2-L-2-2--2--2-2-|
--0-0-0--0---2-L-2-2--2--2-2-|--3-3-3--3---3-L-3-3--3--3-3-|
--0-0-0--0---2-L-2-2--2--2-2-|--2-2-2--2---2-L-2-2--2--2-2-|
--2---2--2---2-L---2--2--2---|--0---0--0---x-L---x--x--x---|
--2---2--2---0-L---0--0------|-------------2-L---2--2--2---|
--0---0--0-------------------|-----------------------------|


  S S E  E.  S S S E  E  S S    S S E  E.  S S S E  E  S S  
--0-0-0--0---0-L-0-0--0--0-0-|--2-2-2--2---2-L-2-2--2--2-2-|
--0-0-0--0---2-L-2-2--2--2-2-|--3-3-3--3---1-L-1-1--1--1-1-|
--0-0-0--0---2-L-2-2--2--2-2-|--2-2-2--2---2-L-2-2--2--2-2-|
--2---2--2---2-L---2--2--2---|--0---0--0---0-L---0--0--0---|
--2---2--2---0-L---0--0------|-----------------------------|
--0---0--0-------------------|-----------------------------|


  S S E  E.  S S S E  E  S S    S S E  E.  S S S E  E  S S  
--0-0-0--0---0-L-0-0--0--0-0-|--2-2-2--2---0-L-0-0--0--0-0-|
--0-0-0--0---2-L-2-2--2--2-2-|--3-3-3--3---3-L-3-3--3--3-3-|
--0-0-0--0---2-L-2-2--2--2-2-|--2-2-2--2---2-L-2-2--2--2-2-|
--2---2--2---2-L---2--2--2---|--0---0--0---x-L---x--x--x---|
--2---2--2---0-L---0--0------|-------------4-L---4--4------|
--0---0--0-------------------|-----------------------------|


                                                         ^    ^    ^         
  S S E  E.  S S S E  E  S S    E  E  E  Q    Q    E     Q    Q    H         
--0-0-0--0-------------------|-----------2------------|--0----0----0--------|
--3-3-3--3---3-L-3-3--2--2-2-|-----0--3-------3-------|--3----3----2--------|
--2-2-2--2---2-L-2-2--2--2-2-|--0------------------2--|--2----2----2--------|
--0---0--0---0-L-0-0--0--0-0-|------------------------|--2----2----2--------|
--2---2--2---0-L---0--0------|------------------------|--0----0----0--------|
-----------------------------|------------------------|---------------------|


  T X T H.           E  T.    T X T H.           E  T.  
--------2------------L--L--|--------2------------L--L--|
------3--------------------|------2--------------------|
----2----------------------|----2----------------------|
--0------------------------|--0------------------------|
---------------------------|---------------------------|
---------------------------|---------------------------|


  T X T H.           E  T.    T X T H.           E  T.  
--------2------------L--L--|--------2------------L--L--|
------1--------------------|------2--------------------|
----2----------------------|----2----------------------|
--0------------------------|--0------------------------|
---------------------------|---------------------------|
---------------------------|---------------------------|


  S S E  E.  S S S E  E  S S    S S E  E.  S S S E  E  S S  
--3-3-3--3---0-L-0-0--0--0-0-|--2-2-2--2---2-L-2-2--2--2-2-|
--0-0-0--0---2-L-2-2--2--2-2-|--3-3-3--3---3-L-3-3--3--3-3-|
--0-0-0--0---2-L-2-2--2--2-2-|--2-2-2--2---2-L-2-2--2--2-2-|
--2-2-2--2---2-L---2--2------|--0---0--0-------------------|
--2---2------0-L---0--0--0---|-------------2-L---2--2--2---|
--0---0--0-------------------|-----------------------------|


  S S E  E.  S S S E  E  S S    S S E  E.  S S S E  E  S S  
--3-3-3--3---0-L-0-0--0--0-0-|--2-2-2--2---2-L-2-2--2--2-2-|
--0-0-0--0---2-L-2-2--2--2-2-|--3-3-3--3---1-L-1-1--1--1-1-|
--0-0-0--0---2-L-2-2--2--2-2-|--2-2-2--2---2-L-2-2--2--2-2-|
--2-2-2--2---2-L---2--2------|--0---0--0---0-L---0--0--0---|
--2---2------0-L---0--0--0---|-----------------------------|
--0---0--0-------------------|-----------------------------|


  S S E  E.  S S S E  E  S S    S S E  E.  S S S E  E  S S  
--3-3-3--3---0-L-0-0--0--0-0-|--2-2-2--2---2-L-2-2--2--2-2-|
--0-0-0--0---2-L-2-2--2--2-2-|--3-3-3--3---3-L-3-3--3--3-3-|
--0-0-0--0---2-L-2-2--2--2-2-|--2-2-2--2---2-L-2-2--2--2-2-|
--2-2-2--2---2-L---2--2------|--0---0--0-------------------|
--2---2------0-L---0--0--0---|-------------2-L---2--2--2---|
--0---0--0-------------------|-----------------------------|


  S S E  E.  S S S E  E  S S    S S E  E.  S S S E  E  S S  
--3-3-3--3---0-L-0-0--0--0-0-|--2-2-2--2---2-L-2-2--2--2-2-|
--0-0-0--0---2-L-2-2--2--2-2-|--3-3-3--3---1-L-1-1--1--1-1-|
--0-0-0--0---2-L-2-2--2--2-2-|--2-2-2--2---2-L-2-2--2--2-2-|
--2-2-2--2---2-L---2--2------|--0---0--0---0-L---0--0--0---|
--2---2------0-L---0--0--0---|-----------------------------|
--0---0--0-------------------|-----------------------------|


  S S E  E.  S S S E  E  S S    S S E   E.  S S S E   E  S S  
--3-3-3--3---0-L-0-0--0--0-0-|--2-2-2--10---0-L-0----10----0-|
--0-0-0--0---2-L-2-2--2--2-2-|--3-3-3------------------------|
--0-0-0--0---2-L-2-2--2--2-2-|--2-2-2--11---------9---9--9---|
--2-2-2--2---2-L---2--2------|--0---0---0---7-L-7-7---7--7-7-|
--2---2------0-L---0--0--0---|---------12--------------------|
--0---0--0-------------------|--------------9-L---9---9--9---|


  S S E   E.  S S S E   E  S S    E  E  E  Q    Q.        Q    Q    H         
---------10------------10------|-----------2-----------|--0----0----0--------|
--7-7-7---7---7-L-7-7---7--7-7-|-----0--3-------3------|--3----3----2--------|
-------------------------------|--0--------------------|--2----2----2--------|
--7-7-7---7---7-L-7-7---7--7-7-|-----------------------|--2----2----2--------|
--------------0-L---0---0--0---|-----------------------|--0----0----0--------|
--7---7---7--------------------|-----------------------|---------------------|


  S S E  E.  S S S E  E  S S    S S E  E.  S S S E  E  S S  
--2-2-2--2---2-L-2-2--2--2-2-|--2-2-2--2---2-L-2-2--2--2-2-|
--3-3-3--3---3-L-3-3--3--3-3-|--2-2-2--2---2-L-2-2--2--2-2-|
--2-2-2--2---2-L-2-2--2--2-2-|--2-2-2--2---2-L-2-2--2--2-2-|
--0---0--0---0-L---0--0--0---|--0---0--0---0-L---0--0--0---|
-----------------------------|-----------------------------|
-----------------------------|-----------------------------|


  S S E  E.  S S S E  E  S S    S S E  E.  S S S E  Q     
--2-2-2--2---2-L-2-2--2--2-2-|--2-2-2--2---2-L-2-2--2----|
--1-1-1--1---1-L-1-1--1--1-1-|--2-2-2--2---2-L-2-2--2----|
--2-2-2--2---2-L-2-2--2--2-2-|--2-2-2--2---2-L-2-2--2----|
--0---0--0---0-L---0--0--0---|--0---0--0---0-L---0--0----|
-----------------------------|---------------------------|
-----------------------------|---------------------------|


  S S E  E.  S S S E  E  S S    S S E  E.  S S S E  E  S S  
--2-2-2--2---2-L-2-2--2--2-2-|--2-2-2--2---2-L-2-2--2--2-2-|
--3-3-3--3---3-L-3-3--3--3-3-|--2-2-2--2---2-L-2-2--2--2-2-|
--2-2-2--2---2-L-2-2--2--2-2-|--2-2-2--2---2-L-2-2--2--2-2-|
--0---0--0---0-L---0--0--0---|--0---0--0---0-L---0--0--0---|
-----------------------------|-----------------------------|
-----------------------------|-----------------------------|


  S S E  E.  S S S E  E  S S    S S E  E.  S S S E  E  S S  
--2-2-2--2---2-L-2-2--2--2-2-|--2-2-2--2---2-L-2-2--2--2-2-|
--1-1-1--1---1-L-1-1--1--1-1-|--2-2-2--2---2-L-2-2--2--2-2-|
--2-2-2--2---2-L-2-2--2--2-2-|--2-2-2--2---2-L-2-2--2--2-2-|
--0---0--0---0-L---0--0--0---|--0---0--0---0-L---0--0--0---|
-----------------------------|-----------------------------|
-----------------------------|-----------------------------|


  S S E  E.  S S S E  E  S S    S S E  E.  S S S E  E  S S  
--2-2-2--2---2-L-2-2--2--2-2-|--2-2-2--2---2-L-2-2--2--2-2-|
--3-3-3--3---3-L-3-3--3--3-3-|--2-2-2--2---2-L-2-2--2--2-2-|
--2-2-2--2---2-L-2-2--2--2-2-|--2-2-2--2---2-L-2-2--2--2-2-|
--0---0--0---0-L---0--0--0---|--0---0--0---0-L---0--0--0---|
-----------------------------|-----------------------------|
-----------------------------|-----------------------------|


  S S E  E.  S S S E  E  S S    S S E  E.  S S S E  E  S S  
--2-2-2--2---2-L-2-2--2--2-2-|--2-2-2--2---2-L-2-2--2--2-2-|
--1-1-1--1---1-L-1-1--1--1-1-|--2-2-2--2---2-L-2-2--2--2-2-|
--2-2-2--2---2-L-2-2--2--2-2-|--2-2-2--2---2-L-2-2--2--2-2-|
--0---0--0---0-L---0--0--0---|--0---0--0---0-L---0---------|
-----------------------------|-----------------------------|
-----------------------------|-----------------------------|


  S S E  E.  S S S E  E  S S    S S E  E.  S S S E  E  S S  
--2-2-2--2---2-L-2-2--2--2-2-|--2-2-2--2---2-L-2-2--2--2-2-|
--3-3-3--3---3-L-3-3--3--3-3-|--2-2-2--2---2-L-2-2--2--2-2-|
--2-2-2--2---2-L-2-2--2--2-2-|--2-2-2--2---2-L-2-2--2--2-2-|
---------0---0-L---0--0--0---|--0---0--0---0-L---0--0--0---|
-----------------------------|-----------------------------|
-----------------------------|-----------------------------|


  S S E  E.  S S S E  E  S S    S S E  E.  S S S E  E  S S  
--2-2-2--2---2-L-2-2--2--2-2-|--2-2-2--2---2-L-2-2--2--2-2-|
--1-1-1--1---1-L-1-1--1--1-1-|--2-2-2--2---2-L-2-2--2--2-2-|
--2-2-2--2---2-L-2-2--2--2-2-|--2-2-2--2---2-L-2-2--2--2-2-|
--0---0--0---0-L---0--0--0---|--0---0--0---0-L---0--0--0---|
-----------------------------|-----------------------------|
-----------------------------|-----------------------------|


  T X T H.           E  T.    W                  
--------2------------L--L--|-------------------||
------3--------------------|-------------------||
----2----------------------|-------------------||
--0------------------------|-------------------||
---------------------------|-------------------||
---------------------------|-------------------||


eto yung vocals,,transcript to guitar..

Vocals

     W                   W                   W                 
E||-------------------|-------------------|-------------------|
B||-------------------|-------------------|-------------------|
G||-------------------|-------------------|-------------------|
D||-------------------|-------------------|-------------------|
A||-------------------|-------------------|-------------------|
E||-------------------|-------------------|-------------------|


  W                   W                   W                   W                 
-------------------|-------------------|-------------------|-------------------|
-------------------|-------------------|-------------------|-------------------|
-------------------|-------------------|-------------------|-------------------|
-------------------|-------------------|-------------------|-------------------|
-------------------|-------------------|-------------------|-------------------|
-------------------|-------------------|-------------------|-------------------|


  W                   E  E  E  E  H           E  E  E  S S E  E  E  E   
-------------------|-----------------------|---------------------------|
-------------------|-----6--4--6--L--------|-----6--6--6-6-L--4-----4--|
-------------------|-----------------------|---------------------3-----|
-------------------|-----------------------|---------------------------|
-------------------|-----------------------|---------------------------|
-------------------|-----------------------|---------------------------|


  E  E  E  E  H           E  E  E  S S E  E  E  E     Q    E  E  H         
-----1-----1--L--------|-----1--1--1-1-L-----------|-------1-----1--------|
--------4--------------|------------------4--L-----|----------4-----------|
-----------------------|------------------------3--|----------------------|
-----------------------|---------------------------|----------------------|
-----------------------|---------------------------|----------------------|
-----------------------|---------------------------|----------------------|


  Q    E  E  S E  S Q       E  E  E  E  E  E  E  E     E  E  E  E  E  E  Q     
-------1-----1----1-L----|-----1--1-----1-----1-----|-----------------4--3----|
----------4----4---------|-----2--2--4--2--4--2--4--|--L--6--4----------------|
-------------------------|-----------5-----5-----5--|--L--6--5--5--L----------|
-------------------------|--------------------------|-----------6--L----------|
-------------------------|--------------------------|-------------------------|
-------------------------|--------------------------|-------------------------|


  E  E  E  E  H           E  E  E  S S E  E  E  E     E  E  E  H        E   
-----4--3--1--L--------|-----1--1----1-L--3--------|-----4--3--1--------L--|
-----------------------|-----------4---------4--4--|-----------------------|
-----------------------|---------------------------|-----------------------|
-----------------------|---------------------------|-----------------------|
-----------------------|---------------------------|-----------------------|
-----------------------|---------------------------|-----------------------|


  E  E  E  S S E  Q    S S    Q    E  E  S S Q.      
-----3--3--1-3-L--6--------|-------4---------1------|
-----------------------6-4-|--6-------6--L-4--------|
---------------------------|------------------------|
---------------------------|------------------------|
---------------------------|------------------------|
---------------------------|------------------------|


  E  E  E  S S E  S S E  S S    E  E  Q    E  S S E  E     E  H.           E   
-----1--1----1-L----1-1----1-|--L-----1----1----1-1-----|---------------------|
-----------4------4------4---|-----4----------4------4--|--L------------------|
-----------------------------|--------------------------|-----5------------L--|
-----------------------------|--------------------------|---------------------|
-----------------------------|--------------------------|---------------------|
-----------------------------|--------------------------|---------------------|


  H        E  E  Q       W                   W                 
----------------------|-------------------|-------------------|
-----------------3----|--4----------------|-------------------|
--------------3-------|-------------------|-------------------|
----------------------|-------------------|-------------------|
----------------------|-------------------|-------------------|
----------------------|-------------------|-------------------|


  W                   W                   E  E  E  E  H         
-------------------|-------------------|-----1-----1--L--------|
-------------------|-------------------|--------4--------------|
-------------------|-------------------|-----------------------|
-------------------|-------------------|-----------------------|
-------------------|-------------------|-----------------------|
-------------------|-------------------|-----------------------|


  E  E  E  S S E  E  E  E     E  E  E  E  H           E  E  S E  S E  Q    E   
-----1--1--1-1-L-----------|-----1-----1--L--------|-----1--1-1--1-L----------|
------------------4-----4--|--------4--------------|------------------4-------|
---------------------3-----|-----------------------|-----------------------3--|
---------------------------|-----------------------|--------------------------|
---------------------------|-----------------------|--------------------------|
---------------------------|-----------------------|--------------------------|


  E  E  E  E  H           Q    E  E  S E  S Q       E  E  E  S E.  E  E  E   
-----1-----1--L--------|-------1-----1----1-L----|-----1--1----1------1-----|
--------4--------------|----------4----4---------|-----2--2--4-2---4--2--4--|
-----------------------|-------------------------|-----------5-----5-----5--|
-----------------------|-------------------------|--------------------------|
-----------------------|-------------------------|--------------------------|
-----------------------|-------------------------|--------------------------|


  E  E  E  E  E  E  Q       E  E  E  H        E     E  E  E  S S E  Q    S S  
-----------------4--3----|-----4--3--1--------L--|-----1--1----1-L--6--------|
--L--6--4----------------|-----------------------|-----------4-----------6-4-|
--L--6--5--5--L----------|-----------------------|---------------------------|
-----------6--L----------|-----------------------|---------------------------|
-------------------------|-----------------------|---------------------------|
-------------------------|-----------------------|---------------------------|


  Q    E  E  S S Q.        E  E  E  S S E  S S E  S S  
-------4---------1------|-----3--3----3-L--3-6-1----1-|
--6-------6--L-4--------|-----------6-------------4---|
------------------------|-----------------------------|
------------------------|-----------------------------|
------------------------|-----------------------------|
------------------------|-----------------------------|


  E  E  Q    E  S S E  E     E  E  E  S S E  S S E  S S  
--L-----1----1----1-1-----|-----1--1----1-L----1-1----1-|
-----4----------4------4--|-----------4------4------4---|
--------------------------|-----------------------------|
--------------------------|-----------------------------|
--------------------------|-----------------------------|
--------------------------|-----------------------------|


  E  E  Q    E  S S E  E     E  H.           E     H        E  E  Q     
--L-----1----1----1-1-----|---------------------|----------------------|
-----4----------4------4--|--L------------------|-----------------3----|
--------------------------|-----5------------L--|--------------3-------|
--------------------------|---------------------|----------------------|
--------------------------|---------------------|----------------------|
--------------------------|---------------------|----------------------|


  W                   W                   W                   W                 
-------------------|-------------------|-------------------|-------------------|
--4----------------|-------------------|-------------------|-------------------|
-------------------|-------------------|-------------------|-------------------|
-------------------|-------------------|-------------------|-------------------|
-------------------|-------------------|-------------------|-------------------|
-------------------|-------------------|-------------------|-------------------|


  W                   W                   W                   W                 
-------------------|-------------------|-------------------|-------------------|
-------------------|-------------------|-------------------|-------------------|
-------------------|-------------------|-------------------|-------------------|
-------------------|-------------------|-------------------|-------------------|
-------------------|-------------------|-------------------|-------------------|
-------------------|-------------------|-------------------|-------------------|


  E  E  E  H        E     E  E  E  S S E  E  E  E     E  E  E  H        E   
-----------------------|------------------3--------|-----4--3--1--------L--|
-----9--8--6--------L--|-----6--6--4-6-L-----4--4--|-----------------------|
-----------------------|---------------------------|-----------------------|
-----------------------|---------------------------|-----------------------|
-----------------------|---------------------------|-----------------------|
-----------------------|---------------------------|-----------------------|


  E  E  E  S S S S Q    S S    Q    E  S S S S Q.      
-----3--3--1-3-L-6-L--------|-------4----------1------|
------------------------6-4-|--6-------6-6-L-4--------|
----------------------------|-------------------------|
----------------------------|-------------------------|
----------------------------|-------------------------|
----------------------------|-------------------------|


  E  E  E  S S E  S S E  S S    E  E  Q    E  S S E  E     E  H.           E   
-----1--1----1-L----1-1----1-|--L-----1----1----1-1-----|---------------------|
-----------4------4------4---|-----4----------4------4--|--L------------------|
-----------------------------|--------------------------|-----5------------L--|
-----------------------------|--------------------------|---------------------|
-----------------------------|--------------------------|---------------------|
-----------------------------|--------------------------|---------------------|


  H        E  E  Q       W                   W                 
----------------------|-------------------|-------------------|
-----------------3----|--4----------------|-------------------|
--------------3-------|-------------------|-------------------|
----------------------|-------------------|-------------------|
----------------------|-------------------|-------------------|
----------------------|-------------------|-------------------|


  W                   H        E  E  Q       W                 
-------------------|----------------------|-------------------|
-------------------|-----------------3----|--4----------------|
-------------------|--------------3-------|-------------------|
-------------------|----------------------|-------------------|
-------------------|----------------------|-------------------|
-------------------|----------------------|-------------------|


  W                   W                   H        E  E  Q     
-------------------|-------------------|----------------------|
-------------------|-------------------|-----------------3----|
-------------------|-------------------|--------------3-------|
-------------------|-------------------|----------------------|
-------------------|-------------------|----------------------|
-------------------|-------------------|----------------------|


  W                   W                   W                 
-------------------|-------------------|-------------------|
--4----------------|-------------------|-------------------|
-------------------|-------------------|-------------------|
-------------------|-------------------|-------------------|
-------------------|-------------------|-------------------|
-------------------|-------------------|-------------------|


  H        E  E  Q       W                   W                 
----------------------|-------------------|-------------------|
-----------------3----|--4----------------|-------------------|
--------------3-------|-------------------|-------------------|
----------------------|-------------------|-------------------|
----------------------|-------------------|-------------------|
----------------------|-------------------|-------------------|


  W                   W                   W                 
-------------------|-------------------|-------------------|
-------------------|-------------------|-------------------|
-------------------|-------------------|-------------------|
-------------------|-------------------|-------------------|
-------------------|-------------------|-------------------|
-------------------|-------------------|-------------------|


  W                  
-------------------||
-------------------||
-------------------||
-------------------||
-------------------||
-------------------||


Kiss Me lyrics

Kiss me out of the bearded barley
Nightly, beside the green, green grass
Swing, swing, swing the spinning step
You wear those shoes and I will wear that dress.

[Chorus:]
Oh, kiss me beneath the milky twilight
Lead me out on the moonlit floor
Lift your open hand
Strike up the band and make the fireflies dance
Silver moon's sparkling
So kiss me

Kiss me down by the broken tree house
Swing me upon its hanging tire
Bring, bring, bring your flowered hat
We'll take the trail marked on your father's map

[Chorus (repeat)]

Duration Legend
---------------
W - whole
H - half
Q - quarter
E - 8th
S - 16th
T - 32nd
X - 64th
. - note dotted
|-n-|  - n-tuplets


Tablature Legend
----------------
L - tied note
x - dead note
g - grace note
(n) - ghost note
> - accentuded note
NH - natural harmonic
AH - artificial harmonic
TH - tapped harmonic
SH - semi harmonic
PH - pitch harmonic
h - hammer on
p - pull off
b - bend
br - bendRelease
pb - preBend
pbr - preBendRelease
brb - bendReleaseBend
\n/ - tremolo bar dip
\n - tremolo bar dive
-/n - tremolo bar Release up
/n\ - tremolo bar inverted dip
/n - tremolo bar return
-\n - tremolo bar Release down
S - shift slide
s - legato slide
/ -  slide into from below or out of upwards
\ -  slide into from above or out of downwards
~ - vibrato
W - wide vibrato
tr - trill
TP - tremolo picking
T - tapping
S - slap
P - pop
< - fade in
^ - brush up
v - brush down
rate pls..tnx.. timz_unix30@yahoo.com
Tap to rate this tab
# A B C D E F G H I J K L M N O P Q R S T U V W X Y Z