Song name
# A B C D E F G H I J K L M N O P Q R S T U V W X Y Z

Sixpence None The Richer - My Dear Machine tab

This is the my dear machine single from Sixpence none the richer. This is come from the 
My dear machine EP.

This is the song to listen to the track:
http://www.youtube.com/watch?v=_iQgT5jvJ0E

No capo. Standard tune.
This is the intro and the solo
E--------------------------------|
B--------------------------------|
G----5--7-----5---7----9---5-7---|
D--7--7-----7---7--------7-----7-|
A--------------------------------|
E--------------------------------|


E--------------------------------|
B--------------------------------|
G----5--7-----5---7----9---5-7-9-|
D--7--7-----7---7--------7-------|
A--------------------------------|
E--------------------------------|

At the end of the song, the chords are A G and D.

Last note is a A.
Tap to rate this tab
# A B C D E F G H I J K L M N O P Q R S T U V W X Y Z