Song name
# A B C D E F G H I J K L M N O P Q R S T U V W X Y Z

Sixth Floor - Supergrass tab

-------------------------------------------------------------------------------
			     Supergass - Sixth Floor
-------------------------------------------------------------------------------
Tabbed by: Blake Wrather
Email:blake2009@hotmail.com

Tuning: Standard

|-----------------------------------------------|
|-----------------------------------------------|
|-----------------------------------------------|
|-----------------------------------------------|
|--9-9-9-9--7-9----9-9-9-9--7-9-----------------|
|--7-7-7-7--5-7----7-7-7-7--5-7-----------------|


|-----------------------------------------------|
|-----------------------------------------------|
|-----------------------------------------------|
|-----7-------7----------7---------------X-X----|
|--9--5--9-9--5-9-9-9-9--5--9--7--9-9----X-X----|
|--7-----7-7----7-7-7-7-----7--5--7-7----X-X----|
Tap to rate this tab
# A B C D E F G H I J K L M N O P Q R S T U V W X Y Z