Song name
# A B C D E F G H I J K L M N O P Q R S T U V W X Y Z

Sixth Sense - Dari Hati tab

Dari Hati
by Sixth Sense
Tabbed by SumaX


intro


guitar1

e|---------5p3~----|-----8-7-5------------------------------------|
B|-----3h5---------|-----------5----3h5---------------------------|
G|-----------------|----------------------------------------------|
D|-----------------|----------------------------------------------|
A|-----------------|----------------------------------------------|
E|-----------------|----------------------------------------------|


guitar2
        C            Am                    F               G
e|----0-----------|--0--0----------|----0--1---------|----0--3----------|
B|----1----1------|-----1----1-----|-------1----1----|-------3----3-----|
G|-------0--------|--------2-------|----------2------|----------0---0---|
D|----3-----------|----------------|-----------------|------------------|
A|----------------|-----0----------|-------3---------|------------------|
E|----------------|----------------|-----------------|-------3----------|

        C            Am                    F               G
e|----0-----------|--0--0----------|----0--1--1h3-1--|----0--3--------3-|
B|----1----1------|-----1----1-----|-------1---------|-------3----3-----|
G|-------0--------|--------2-------|-----------------|----------0---0---|
D|----3-----------|----------------|-----------------|------------------|
A|----------------|-----0----------|-------3---------|------------------|
E|----------------|----------------|-----------------|-------3----------|
Tap to rate this tab
# A B C D E F G H I J K L M N O P Q R S T U V W X Y Z