Song name
# A B C D E F G H I J K L M N O P Q R S T U V W X Y Z

Sixx Am - Permission tab

permission on electric guitar

first verse [1st part]

7----7----7-| [continuously]
-7-8---7-8--|
------------|
------------|
------------|
------------|

first verse [2nd part]
---13--------- ---14--------- ---------------- ----7--------|
12----12-11-12 12----13-12-13 13-11-9-7-6--11b 8-7---7b-----|
-------------- -------------- ---------------- -------------|
-------------- -------------- ---------------- -------------|
-------------- -------------- ---------------- -------------|
-------------- -------------- ---------------- -------------|

[chorus]
2--2--2--2--2-2-2 0--0--0--0--0-0-0 0--0--0--0--0-0-0 0--0--0--0--0-0-0-|
3--3--3--3--3-3-3 0--0--0--0--0-0-0 1--1--1--1--1-1-1 0--0--0--0--0-0-0-|
2--2--2--2--2-2-2 2--2--2--2--2-2-2 0--0--0--0--0-0-0 0--0--0--0--0-0-0-|
0--0--0--0--0-0-0 3--3--3--3--3-3-3 3--3--3--3--3-3-3 0--0--0--0--0-0-0-|
----------------- 3--3--3--3--3-3-3 3--3--3--3--3-3-3 3--3--3--3--3-3-3-|
----------------- 1--1--1--1--1-1-1 0--0--0--0--0-0-0 3--3--3--3--3-3-3-|

2--2--2--2--2-2-2 0--0--0--0--0-0-0-|
3--3--3--3--3-3-3 0--0--0--0--0-0-0-|
2--2--2--2--2-2-2 2--2--2--2--2-2-2-|
0--0--0--0--0-0-0 3--3--3--3--3-3-3-|
----------------- 3--3--3--3--3-3-3-|
----------------- 1--1--1--1--1-1-1-|

2nd verse intro
7----7----7-| [X2]
-7-8---7-8--|
------------|
------------|
------------|
------------|

2nd verse
---13--------- ---14--------- ---------------- ----7--------|
12----12-11-12 12----13-12-13 13-11-9-7-6--11b 8-7---7b-----|
-------------- -------------- ---------------- -------------|
-------------- -------------- ---------------- -------------|
-------------- -------------- ---------------- -------------|
-------------- -------------- ---------------- -------------|

[chorus]
2--2--2--2--2-2-2 0--0--0--0--0-0-0 0--0--0--0--0-0-0 0--0--0--0--0-0-0-|
3--3--3--3--3-3-3 0--0--0--0--0-0-0 1--1--1--1--1-1-1 0--0--0--0--0-0-0-|
2--2--2--2--2-2-2 2--2--2--2--2-2-2 0--0--0--0--0-0-0 0--0--0--0--0-0-0-|
0--0--0--0--0-0-0 3--3--3--3--3-3-3 3--3--3--3--3-3-3 0--0--0--0--0-0-0-|
----------------- 3--3--3--3--3-3-3 3--3--3--3--3-3-3 3--3--3--3--3-3-3-|
----------------- 1--1--1--1--1-1-1 0--0--0--0--0-0-0 3--3--3--3--3-3-3-|

2--2--2--2--2-2-2 0--0--0--0--0-0-0-|
3--3--3--3--3-3-3 0--0--0--0--0-0-0-|
2--2--2--2--2-2-2 2--2--2--2--2-2-2-|
0--0--0--0--0-0-0 3--3--3--3--3-3-3-|
----------------- 3--3--3--3--3-3-3-|
----------------- 1--1--1--1--1-1-1-|

[before low down]
0--0--0-|
0--0--0-|
0--0--0-|
3--3--0-|
3--3--3-|
0--0--3-|

[low down]
i step out my front door and it comes back too you!
0-0--------|
0-0--------|
0-0--------|
3-3--------|
3-3--------|
0-0--------|

the end of my drive way it comes back to you
0-0--------|
0-0--------|
0-0--------|
3-3--------|
3-3--------|
0-0--------|

i could die in los angeles it would come back to u
0--0--0-|
0--0--0-|
0--0--0-|
3--3--0-|
3--3--3-|
0--0--3-|

[chorus]
2--2--2--2--2-2-2 0--0--0--0--0-0-0 0--0--0--0--0-0-0 0--0--0--0--0-0-0-|
3--3--3--3--3-3-3 0--0--0--0--0-0-0 1--1--1--1--1-1-1 0--0--0--0--0-0-0-|
2--2--2--2--2-2-2 2--2--2--2--2-2-2 0--0--0--0--0-0-0 0--0--0--0--0-0-0-|
0--0--0--0--0-0-0 3--3--3--3--3-3-3 3--3--3--3--3-3-3 0--0--0--0--0-0-0-|
----------------- 3--3--3--3--3-3-3 3--3--3--3--3-3-3 3--3--3--3--3-3-3-|
----------------- 1--1--1--1--1-1-1 0--0--0--0--0-0-0 3--3--3--3--3-3-3-|

2--2--2--2--2-2-2 0--0--0--0--0-0-0-|
3--3--3--3--3-3-3 0--0--0--0--0-0-0-|
2--2--2--2--2-2-2 2--2--2--2--2-2-2-|
0--0--0--0--0-0-0 3--3--3--3--3-3-3-|
[1st part of first verse] X1

7----7----7-|
-7-8---7-8--|
------------|
------------|
------------|
------------|

[chorus]
2--2--2--2--2-2-2 0--0--0--0--0-0-0 0--0--0--0--0-0-0 0--0--0--0--0-0-0-|
3--3--3--3--3-3-3 0--0--0--0--0-0-0 1--1--1--1--1-1-1 0--0--0--0--0-0-0-|
2--2--2--2--2-2-2 2--2--2--2--2-2-2 0--0--0--0--0-0-0 0--0--0--0--0-0-0-|
0--0--0--0--0-0-0 3--3--3--3--3-3-3 3--3--3--3--3-3-3 0--0--0--0--0-0-0-|
----------------- 3--3--3--3--3-3-3 3--3--3--3--3-3-3 3--3--3--3--3-3-3-|
----------------- 1--1--1--1--1-1-1 0--0--0--0--0-0-0 3--3--3--3--3-3-3-|

2--2--2--2--2-2-2 0--0--0--0--0-0-0-|
3--3--3--3--3-3-3 0--0--0--0--0-0-0-|
2--2--2--2--2-2-2 2--2--2--2--2-2-2-|
0--0--0--0--0-0-0 3--3--3--3--3-3-3-|
Tap to rate this tab
# A B C D E F G H I J K L M N O P Q R S T U V W X Y Z