Song name
# A B C D E F G H I J K L M N O P Q R S T U V W X Y Z

Sixx Am - Courtesy Call tab

Intro /verse 
0:21
e|-9---9---9---9---8---8---8---8----8---8---8---8---6---6---6---|
b|---6---6---6---6---6---6---6---6----6---6---6---6---6---6---6-|
g|--------------------------------------------------------------|     x6
d|--------------------------------------------------------------|
a|--------------------------------------------------------------|
d|--------------------------------------------------------------|

pre- chorus
E|-----------------------------------------------------------------------|
b|-----------------------------------------------------------------------|
g|-----------------------------------------------------------------------|
d|--8-7-6----------------------------------------------------------------|
a|--8-7-6----------------------------------------------------------------|
d|--8-7-6----------------------------------------------------------------|


chorus
E|-----------------------------------------------------------------------|
b|-----------------------------------------------------------------------|
g|-----------------------------------------------------------------------|
d|-8-8-8-8-8-8-8-8--7-7-7-7-7-7-7-7--6-6-6-6-6-6-6-6--5-5-5-5--4-4--3-3--| x2
a|-8-8-8-8-8-8-8-8--7-7-7-7-7-7-7-7--6-6-6-6-6-6-6-6--5-5-5-5--4-4--3-3--|
d|-8-8-8-8-8-8-8-8--7-7-7-7-7-7-7-7--6-6-6-6-6-6-6-6--5-5-5-5--4-4--3-3--|
Tap to rate this tab
 
# A B C D E F G H I J K L M N O P Q R S T U V W X Y Z