Song name
# A B C D E F G H I J K L M N O P Q R S T U V W X Y Z

Sixx Am - Heart Failure tab

"Heart Failure"
SIXX: A.M.
The Heroin Diaries Soundtrack

DADGBe

Starts with piano, guitar cue is "...Drug Scouts of America..."

Intro mini-solo
e--------------------------------------------------------------------------|
B--------------------------------------------------------------------------|
G--------------------------------------------------------------------------|
D--/7~--9-10--------9-10-------9-10----------------------------------------|
A-------------9~----------10~----------------------------------------------|
D--------------------------------------------------------------------------|

Build-up
e--------------------------------------------------------------------------|
B--------------9--------------9--------------------------------------------|
G---9-10-9-10----10-9-10-9-10---10-9---------------------------------------|
D------------------------------------12-10-9-------------------------------|
A--------------------------------------------------------------------------|
D--------------------------------------------------------------------------|

Gtr 1 Riff A (with Wah)
e--------------------------------------------------------------------------|
B--------------------------------------------------------------------------|
G--------------------------------------------------------------------------|
D--------------------------------------------------------------------------|
A---0h7-0h7-0h8-0h8-0h5-0h5---------0h7-0h7-0h8-0h8-0h5-0h5----------------|
D---------------------------2/3-3/5-------------------------2/3-3/5--------|

Gtr 2 Riff B
e--------------------------------------------------------------------------|
B--------------------------------------------------------------------------|
G----------------77-----------------------77------55-----------------------|
D---777----555---77--33--55-777----555----77--33--55-----------------------|
A---777----555---55--33--55-777----555----55--33--55-----------------------|
D---777----555-------33--55-777----555--------33--55-----------------------|

Verse Part A (Both Guitars)
e--------------------------------------------------------------------------|
B--------------------------------------------------------------------------|
G----------------77-----------------------77------55-----------------------|
D---777----555---77--33--55-777----555----77--33--55-----------------------|
A---777----555---55--33--55-777----555----55--33--55-----------------------|
D---777----555-------33--55-777----555--------33--55-----------------------|

Verse Part B (Gtr 2 plays Verse Part A)
Gtr 1
e--------------------------------------------------------------------------|
B--------------------------------------------------------------------------|
G--------------------------------------------------------------------------|
D--------------------------------------------------------------------------|
A---0h7-0h7-0h8-0h8-0h5-0h5---------0h7-0h7-0h8-0h8-0h5-0h5----------------|
D---------------------------2/3-3/5-------------------------2/3-3/5--------|

Verse Part C (Gtr 2 plays first half of Verse Part A)
(I'm not sure on this, but...)
e--------------------------------------------------------------------------|
B------10---------10----------10------10-----------------------------------|
G----9----9~---9-----9------9----9~-9----9---------------------------------|
D--7---------------------7-------------------------------------------------|
A--------------------------------------------------------------------------|
D--------------------------------------------------------------------------|

Pre-Chorus
e---------------------------------------------------------------------------------|
B---------------------------------------------------------------------------------|
G---------------------------------------------------------------------------------|
D--7-777777-6-666666--777777-<=====-BendThisChord---------------------------------|
A--7-777777-6-666666--555555-<=====-----------------------------------------------|
D--7-777777-6-666666--------------------------------------------------------------|

Chorus
e--------------------------------------------------------------------------|
B--------------------------------------------------------------------------|
G--------------------------------------------------------------------------|
D--5-55555555555555-4-44444444444444-3-33333333333333-2-22222222222222-----|
A--5-55555555555555-4-44444444444444-3-33333333333333-2-22222222222222-----|
D--5-55555555555555-4-44444444444444-3-33333333333333-2-22222222222222-----|

e--------------------------------------------------------------------------|
B--------------------------------------------------------------------------|
G--------------------------------------------------------------------------|
D--5-55555555555555-4-44444444444444-3-33333333333333-2--------------------|
A--5-55555555555555-4-44444444444444-3-33333333333333-2--------------------|
D--5-55555555555555-4-44444444444444-3-33333333333333-2--------------------|

After-Chorus
Gtr 1 (with Wah)
e--------------------------------------------------------------------------|
B--------------------------------------------------------------------------|
G--------------------------------------------------------------------------|
D--------------------------------------------------------------------------|
A---0h7-0h7-0h8-0h8-0h5-0h5---------0h7-0h7-0h8-0h8-0h5-0h5----------------|
D---------------------------2/3-3/5-------------------------2/3-3/5--------|

Gtr 2
e--------------------------------------------------------------------------|
B--------------------------------------------------------------------------|
G----------------77-----------------------77------55-----------------------|
D---777----555---77--33--55-777----555----77--33--55-----------------------|
A---777----555---55--33--55-777----555----55--33--55-----------------------|
D---777----555-------33--55-777----555--------33--55-----------------------|

Verse 2 part A (Both Guitars)
e--------------------------------------------------------------------------|
B--------------------------------------------------------------------------|
G----------------77-----------------------77------55-----------------------|
D---777----555---77--33--55-777----555----77--33--55-----------------------|
A---777----555---55--33--55-777----555----55--33--55-----------------------|
D---777----555-------33--55-777----555--------33--55-----------------------|

Verse 2 part B (Gtr 2 plays Verse part A)
Gtr 2
e--------------------------------------------------------------------------|
B--------------------------------------------------------------------------|
G--------------------------------------------------------------------------|
D--------------------------------------------------------------------------|
A---0h7-0h7-0h8-0h8-0h5-0h5---------0h7-0h7-0h8-0h8-0h5-0h5----------------|
D---------------------------2/3-3/5-------------------------2/3-3/5--------|

Verse 2 Part C (Gtr 2 plays first half of Verse Part A)
(I'm not sure on this, but...)
e--------------------------------------------------------------------------|
B------10---------10----------10------10-----------------------------------|
G----9----9~---9-----9------9----9~-9----9---------------------------------|
D--7---------------------7-------------------------------------------------|
A--------------------------------------------------------------------------|
D--------------------------------------------------------------------------|

Pre-Chorus
e--------------------------------------------------------------------------|
B--------------------------------------------------------------------------|
G--------------------------------------------------------------------------|
D--7-777777-6-666666--777777-<=====-BendThisChord--------------------------|
A--7-777777-6-666666--555555-<=====----------------------------------------|
D--7-777777-6-666666-------------------------------------------------------|

Chorus
e--------------------------------------------------------------------------|
B--------------------------------------------------------------------------|
G--------------------------------------------------------------------------|
D--5-55555555555555-4-44444444444444-3-33333333333333-2-22222222222222-----|
A--5-55555555555555-4-44444444444444-3-33333333333333-2-22222222222222-----|
D--5-55555555555555-4-44444444444444-3-33333333333333-2-22222222222222-----|

e--------------------------------------------------------------------------|
B--------------------------------------------------------------------------|
G--------------------------------------------------------------------------|
D--5-55555555555555-4-44444444444444-3-33333333333333-2--------------------|
A--5-55555555555555-4-44444444444444-3-33333333333333-2--------------------|
D--5-55555555555555-4-44444444444444-3-33333333333333-2--------------------|

Interlude
(Acoustic/ Clean)
e---5-5--------5-5------4-4-----4-4-----5-5------5-5-----4-4---------------|
B--------5---------5--------5-------5-------5--------5-------5-------------|
G-----------5--------5--------4-------4-------5--------5-------4-----------|
D--------------------------------------------------------------------------|
A--------------------------------------------------------------------------|
D--------------------------------------------------------------------------|

Repeat until Overdriven Rhythm
e--------------------------------------------------------------------------|
B-----------6-6-6-6--------------------------------------------------------|
G--2-2-2-2--5-5-5-5--------------------------------------------------------|
D--2-2-2-2--3-3-3-3--5-5-5-5---5-5--5-5-5-5-5-5-5-5-7-7-7-7-7-7-7-7--------|
A--0-0-0-0--3-3-3-3--5-5-5-5-3-5-5--3-3-3-3-3-3-3-3-5-5-5-5-5-5-5-5--------|
D-----------3-3-3-3--5-5-5-5-5-5-5-----------------------------------------|
PM..........................   PM...................................

Solo
e--------------------------------------------------------------------------|
B----10-13p10-12p10-13p10-15p10-13p10-12p10-13p10--------------------------|
G--12----------------------------------------------------------------------|
D--------------------------------------------------------------------------|
A--------------------------------------------------------------------------|
D--------------------------------------------------------------------------|

e--------------------------------------------------------------------------|
B----10-13p10-12p10-13p10-15p10-13p10-12p10-13p10--------------------------|
G--12----------------------------------------------------------------------|
D--------------------------------------------------------------------------|
A--------------------------------------------------------------------------|
D--------------------------------------------------------------------------|

e---------------------------12--13--12--13--12--13--12--13--12--13--12--13-|
B-13p10--15p10-13p10-15p10----10--10--10--10--10--10--10--10--10--10--10---|
G--------------------------------------------------------------------------|
D--------------------------------------------------------------------------|
A--------------------------------------------------------------------------|
D--------------------------------------------------------------------------|

e--15~-------------15------15-----15------15-------------------------------|
B-------13~---15^17---15^17--15^17---15^17---15^17^15-13-------------------|
G--------------------------------------------------------------------------|
D--------------------------------------------------------------------------|
A--------------------------------------------------------------------------|
D--------------------------------------------------------------------------|

e-------15-13-12-----15p13p12----15p13p12--15p13p12--15p13p12--15p13p12----|
B-12-13-----------12----------12---------12--------12--------12------------|
G--------------------------------------------------------------------------|
D--------------------------------------------------------------------------|
A--------------------------------------------------------------------------|
D--------------------------------------------------------------------------|

e---15p13p12----*17~-------------------------------------------------------|
B-12---------12------------------------------------------------------------|
G--------------------------------------------------------------------------|
D--------------------------------------------------------------------------|
A--------------------------------------------------------------------------|
D--------------------------------------------------------------------------|

After the Solo are two more chorus, then the after chorus.

I know there are some holes, but this is my first tab, so comments would be helpful.
Tap to rate this tab
 
# A B C D E F G H I J K L M N O P Q R S T U V W X Y Z