Guitaretab - guitar tabs
Song name
# A B C D E F G H I J K L M N O P Q R S T U V W X Y Z

Sixx Am - Van Nuys tab

Artist: Sixx:A.M.
Song: Van Nuys
Album: The Heroin Diaries Soundtrack
Tuning: Drop D (D, A, D, G, B, E)
Tabbed By: guitartiger


Intro/Verse (Piano)

e|---------------------------|
B|------5-6-------3----------|
G|----7---------5---5--------|
D|---7-7-7-7---5-5-5-5-------|
A|--5---------3--------------|
D|---------------------------|X11

( Just Bass for one time)

e|---------------------------|
B|------5-6-------3----------|
G|----7---------5---5--------|
D|---7-7-7-7---5-5-5-5-------|
A|--5---------3--------------|
D|---------------------------|X4

Chorus

e|---------------------------|----------------------------|
B|---------------------------|----------------------------|
G|--3-3---3-3----3-----------|----------------------------|
D|--3-3---3-3----3-----------|----------------------------|
A|--1-1-0-1-1--0-1--0-0-XX-0-|0-XX-0----------------------|
D|------0------0----0-0-XX-0-|0-XX-0----------------------|X3

e|---------------------------|---------------------------|
B|---------------------------|---------------------------|
G|--5-5-5-5-5-5-5-5--3-3-3-3-|-3-3-3-3-------------------|
D|--5-5-5-5-5-5-5-5--3-3-3-3-|-3-3-3-3-------------------|
A|--3-3-3-3-3-3-3-3--1-1-1-1-|-1-1-1-1-------------------|
D|---------------------------|---------------------------|

Verse (Piano)

e|---------------------------|
B|------5-6-------3----------|
G|----7---------5---5--------|
D|---7-7-7-7---5-5-5-5-------|
A|--5---------3--------------|
D|---------------------------|X4

Chorus
[ Tab from: http://www.guitaretab.com/s/sixx-am/112794.html ]
e|---------------------------|----------------------------|
B|---------------------------|----------------------------|
G|--3-3---3-3----3-----------|----------------------------|
D|--3-3---3-3----3-----------|----------------------------|
A|--1-1-0-1-1--0-1--0-0-XX-0-|0-XX-0----------------------|
D|------0------0----0-0-XX-0-|0-XX-0----------------------|X3

e|---------------------------|---------------------------|
B|---------------------------|---------------------------|
G|--5-5-5-5-5-5-5-5--3-3-3-3-|-3-3-3-3-------------------|
D|--5-5-5-5-5-5-5-5--3-3-3-3-|-3-3-3-3-------------------|
A|--3-3-3-3-3-3-3-3--1-1-1-1-|-1-1-1-1-------------------|
D|---------------------------|---------------------------|

e|---------------------------|----------------------------|
B|---------------------------|----------------------------|
G|--3-3---3-3----3-----------|----------------------------|
D|--3-3---3-3----3-----------|----------------------------|
A|--1-1-0-1-1--0-1--0-0-XX-0-|0-XX-0----------------------|
D|------0------0----0-0-XX-0-|0-XX-0----------------------|X3

e|---------------------------|---------------------------|
B|---------------------------|---------------------------|
G|--5-5-5-5-5-5-5-5--3-3-3-3-|-3-3-3-3-------------------|
D|--5-5-5-5-5-5-5-5--3-3-3-3-|-3-3-3-3-------------------|
A|--3-3-3-3-3-3-3-3--1-1-1-1-|-1-1-1-1-------------------|
D|---------------------------|---------------------------|

Outro (Piano)

e|------5----------5------1--|------1---------5----------|
B|-----5--5----5-6-----------|1------1---------6-5-5-----|
G|--7-7--7-7-7---------3-3--3|-3-3-3--3-3--7-7----7---3-3|
D|---7--------7-7-7-7---3----|----3----3----7----------3-|
A|---------------------------|---------------------------|
D|---------------------------|---------------------------|

e|--1------------------------|
B|---------------------------|
G|---3-2-0-2-----------------|
D|---------------------------|
A|---------------------------|
D|---------------------------|X3

End

PLZ COMMENT!!!!  =p
Related for Van Nuys tab
Advertisement will be closed in 10 seconds