Song name
# A B C D E F G H I J K L M N O P Q R S T U V W X Y Z

Sixx Am - Accidents Can Happen tab

Been looking everywhere for solo tabs couldn't find them anywhere so i
decided to learn it from song and write out tabs for all you guys out there
with my same problem! Maybe some mistakes, sorry if there is, but what can i
say im not dj ashba so i don't know. Anyway hope this is help!!!
-Genji-

Band: Sixx Am
Song: Accidents Can Happen

Tuning: Standard

Keys:
Hammer On = h
Pull Off = p
Bend = b
Slide = ///
Tap = T
Vibrato = ~

Couldnt work out the fast intro part to solo! Sorry, if someone else could
work out then please send me them and will update!!!!

--------------------------------------------------------|
--------------------------------------------------------|
--------------------------------------------------------|
--------------------------------------------------------|
---16b---20b-20-18-17~~ 18------20b-20-18-20------------|
----------------------------20--------------------------|

Fast Hammer On's/Pull Off's (Time With Track)
--------------------------------------------------------|
--------------------------------------------------------|
--------------------------------------------------------|
--------------------------------------------------------|
----17h18p17----15h17p15----13h15p13----11h13p11--------|
--------------------------------------------------------|

Faster Changes Between Each (Time With Track)
--------------------------------------------------------|
--------------------------------------------------------|
--------------------------------------------------------|
--------------------------------------------------------|
--10h11p10--8h10p8--6h8p6--5h6p5--6h8p6--5h6p5--3h5p3---|
--------------------------------------------------------|

--------------------------------------------------------|
-------------------///----------------------------------|
-------------------///----------------------///---------|
-----------7b------///------12b-----11~-----///---------|
---5h6p5-----------///----------------------///---------|
--------------------------------------------------------|

--------------------------------------------------------|
--------------------------------------------------------|
--------------------------------------------------------|
----10-11-12b-10h12b---T20p-----------------------------|
--------------------------------------------------------|
--------------------------------------------------------|

Hammer On's and Pull Off's (Time With Track)
--------------------------------------------------------|
--------------------------------------------------------|
--------------------------------------------------------|
----10h12p10----9h10p9----7h9p7----7---5///7~~~~--------|
--------------------------------------------------------|
--------------------------------------------------------|

Please send me any improvements and i will update these tabs!!
Thanks!
Tap to rate this tab
# A B C D E F G H I J K L M N O P Q R S T U V W X Y Z