Song name
# A B C D E F G H I J K L M N O P Q R S T U V W X Y Z

Sixx Am - X-mas In Hell tab

This is my first ever tab, so don't expect too much.

e:-------------------------------------------------------------------|
B:-------------------------------------------------------------------|
G:-------------------------------------------------7-5-7------7-5-7--|
D:-----8-7-8------8-7-8------8-7-8------8-7-8------------------------|
A:---3----------3----------3----------3----------3----------3--------|
E:-0----------0----------0----------0----------0----------0----------|

e:---------------------------------------------|
B:---------------------------------------------|
G:---------------------------------------------|
D:-----7-5-7------7-5-7------5-3-5------7-5-7--|
A:---3----------3----------3----------3--------|
E:-0----------0----------0----------0----------|

And keep repeating the same riff until it gets to the people singing: "La la-la-la" in 
song, and I'll (eventually) tab out the solo
Tap to rate this tab
# A B C D E F G H I J K L M N O P Q R S T U V W X Y Z