Song name
# A B C D E F G H I J K L M N O P Q R S T U V W X Y Z

Sixx Am - Life Is Beautiful tab

-------------------------------------------------------------------------------
Tabbed by: Andrew
Email:aangus316@hotmail.com

This is the intro to 'Life is Beautiful'.  Enjoy!

Tuning: Drop D

e|---------------------------------------------------------------------------|
B|---------------------------------------------------------------------------|
G|------7-----9---9---7------------------------------------------------------|
D|--7-----7-----7---7---7-------3---5-----5---7------------------------------|
A|----5-----5-------------5-------3---3-----3--------------------------------|
D|0-------------------------0-3---------3-------3/8--------------------------|

e|---------------------------------------------------------------------------|
B|---------------------------------------------------------------------------|
G|---------------------------------------------------------------------------|
D|----10-----12---12---8-----5---7-----8---7---5-----------------------------|
A|--8----8------8----8---8-----5---5-----5---5---8b9-------------------------|
D|8--------8---------------5---------5---------------------------------------|



************************************

| /   slide up
| \   slide down
| h   hammer-on
| p   pull-off
| ~   vibrato
| +   harmonic
| x   Mute note
| b   Bend
| pb  Pre-bend
| br  Bend release
| pbr Pre-bend release
| brb Bend release bend

************************************
Tap to rate this tab
 
# A B C D E F G H I J K L M N O P Q R S T U V W X Y Z