Sixx Am - X-mas In Hell tab

Apparently the ONLY tab set on this site with the whole song on it, so here we go:

Sixx: A.M.
X-Mas in Hell
Heroin Diaries

Drop D tuning

Bells(intro) tabbed for guitar:
e:6--5-6-3--|  or     e:-----------|
B:----------|  for    B:11--10-11-8|
G:----------|  a      G:-----------|
D:----------| better  D:-----------|
A:----------| sound   A:-----------|
D:----------|         D:-----------|

  Acoustic intro/outro plays pretty much just four or eight chords, 
  depending on if you count the added pinky:
   G2  G3b   Bb2  Bb3   F2  F3   Eb2  Eb3
e:---------|----------|--------|----------||
B:---------|----------|--------|----------||
G:---------|----------|--------|----------||
D:--7--8---|--10--12--|--5--7--|--3---5---||
A:--5--5---|--8---8---|--3--3--|--1---1---||
D:--5--5---|--8---8---|--3--3--|--1---1---||

Here's how it'll play out:
     G3b   G2  G3b       G3b   G2   G3b
e:|-------------------|------------------|
B:|-------------------|------------------|
G:|*------------------|------------------|
D:|*-----8---7---8----|-----8---7---8----|     play twice
A:|----5---5---5---5--|---5---5---5---5--|
D:|--5----------------|-5----------------|
    Bb3     Bb2   Bb3       Bb3    Bb2   Bb3
e:|---------------------|---------------------|
B:|---------------------|---------------------|
G:|---------------------|---------------------|
D:|-----12---10---12----|-----12---10---12----|  play once
A:|---8----8----8----8--|---8----8----8----8--|
D:|-8-------------------|-8-------------------|
     F3   F2   F3       F3   F2   F3  
e:|------------------|------------------|
B:|------------------|------------------|
G:|------------------|------------------|
D:|-----7---5---7----|-----7---5---7----|
A:|---3---3---3---3--|---3---3---3---3--|
D:|-3----------------|-3----------------|
    Eb3  Eb2  Eb3        F3   F2   F3
e:|------------------|-------------------|
B:|------------------|-------------------|
G:|------------------|------------------*|   then back to the top
D:|-----5---3---5----|-----7---5---7----*|
A:|---1---1---1---1--|---3---3---3---3---|
D:|-1----------------|-3-----------------|

When the first monolouge is over, it goes all metal on us, the choir singing 
the bell part (basically), counting switches to 3/4 and the rythem guitar is doing this:

e:-------------|-------------|
B:-------------|-------------|
G:-------------|-------------|
D:-6---6-6-6---|-6---6-6-6---|   play twice
A:-6---6-6-6---|-6---6-6-6---|
D:-6---6-6-6---|-6---6-6-6---|

e:-------------|-------------|
B:-------------|-------------|
G:-------------|-------------| play twice also, then repeat untill
D:-5---5-5-5---|-5---5-5-5---| solo is over... then back to the top(again)
A:-5---5-5-5---|-5---5-5-5---| REMEMBER 3 BEATS PER MEASURE!
D:-5---5-5-5---|-5---5-5-5---|

While that's going on, you get one of your buddies to play this:
SOLOOO!!!

e:----------------|----------------||---------------|---------------|
B:-11---10-11-8---|-11---10-11-8---||-10---9-10-7---|-10---9-10-7---|
G:*---------------|---------------*||*--------------|--------------*|    repeat each twice
D:*---------------|---------------*||*--------------|--------------*|
A:----------------|----------------||---------------|---------------|
D:----------------|----------------||---------------|---------------|

e:-10---8-10-6---|-10---8-10-6---||-9---8-9-6---|-9---8-9-6---|
B:---------------|---------------||-------------|-------------|
G:*--------------|--------------*||*------------|------------*|       these also
D:*--------------|--------------*||*------------|------------*|
A:---------------|---------------||-------------|-------------|
E:---------------|---------------||-------------|-------------|

e:-15---15-15-13-11-|-10--------------|-8---8-8-10-8-|--------------|
B:------------------|------11-11-11-11|--------------|-10---8-8-8---|                 \
G:------------------|-----------------|--------------|--------------|                  \ 
D:------------------|-----------------|--------------|--------------|                   >
A:------------------|-----------------|--------------|--------------|                  / |
D:------------------|-----------------|--------------|--------------|                 /  |

e:-10---10-11-10---|-10---10-11-10---|-14---14-15-14---|-14---14-15-14---|               |
B:-----------------|-----------------|-----------------|-----------------|               |
G:-----------------|-----------------|-----------------|-----------------| play this_| part again,
D:-----------------|-----------------|-----------------|-----------------|     then this next line
A:-----------------|-----------------|-----------------|-----------------|
D:-----------------|-----------------|-----------------|-----------------|

e:-10---10-11-10---|-14---14-15-14---|-17---17-18-17---|-10---10---10---|-15~~~~~~~~~~|~~~~~~~~~~
B:-(3----3--4--3)--|-(7----7--8--7)--|(10---10-11-10)--|-(3----3----3)--|-(8)---------|
G:-(7----7--8--7)--|(11---11-12-11)--|(14---14-15-14)--|-(7----7----7)--|-(12)--------|   
D:-----------------|-----------------|-----------------|----------------|-------------|  
A:-----------------|-----------------|-----------------|----------------|-------------|
D:-----------------|-----------------|-----------------|----------------|-------------|
(the notes in parentheses are optional, 
 and an octave down, for if you don't have cut-away or electric)  
 
Which then trails back into the opening riff with ONE exception...
When you are about done with the song, play this little bit... it attaches to the 
end of your last G:
   
       G3b   G2  G3b       G3b   G2   G3b
e:|------------------|-------------------|
B:|------------------|-------------------|
G:|------------------|-------------------|
D:|-----8---7---8----|-----8---7-------5~|~~~
A:|---5---5---5---5--|---5---5---5-8-----|
D:|-5----------------|-5-----------------|
       starts slowing down a bit......    hold
Tap to rate this tab
 
# A B C D E F G H I J K L M N O P Q R S T U V W X Y Z