Song name
# A B C D E F G H I J K L M N O P Q R S T U V W X Y Z

Sixx Am - Are You With Me Now tab

I Don't Know If It Is Ok.

Verse = 

E|-------------------|-------------------|-------------------|
B|-------------------|-------------------|-------------------|
G|--8-8-8-8-8-8-8-8--|-4-4-4-4-4-4-4-4---|------------------4|
D|--8-8-8-8-8-8-8-8--|-4-4-4-4-4-4-4-4---|4-4-4-4-4-4-4-4---4|
A|--6-6-6-6-6-6-6-6--|-2-2-2-2-2-2-2-2---|4-4-4-4-4-4-4-4---2|
E|-------------------|-------------------|2-2-2-2-2-2-2-2----|

 |-------------------|-------------------|-------------------|
 |-------------------|-------------------|-------------------|
 |-4-4-4-4-4-4-4---8-|8-8-8-8-8-8-8---4-4|-4-4-4-4-4-4-------|
 |-4-4-4-4-4-4-4---8-|8-8-8-8-8-8-8---4-4|-4-4-4-4-4-4---4-4-|
 |-2-2-2-2-2-2-2---6-|6-6-6-6-6-6-6---2-2|-2-2-2-2-2-2---4-4-|
 |-------------------|-------------------|---------------2-2-|

 |-------------------|-----------|
 |-------------------|-----------|
 |--------------4-4-4|-4-4-4-4-4-|
 |4-4-4-4-4-4---4-4-4|-4-4-4-4-4-|
 |4-4-4-4-4-4---2-2-2|-2-2-2-2-2-|
 |2-2-2-2-2-2--------|-----------|

Pre Chorus = 

E|-------------------|
B|-------------------|
G|--4------3---------|
D|--4(x20)-3(x10)----|
A|--2------1---------|
E|-------------------|

Chorus = 

E|-------------------|-------------------|-------------------|
B|-------------------|-------------------|-------------------|
G|--44444-------66666|-88888-44444-------|66666666-44444-----|
D|--44444-44444-66666|-88888-44444-44444-|66666666-44444-4444|
A|--22222-44444-44444|-66666-22222-44444-|44444444-22222-4444|
E|--------22222------|-------------22222-|---------------2222|

 |-------------------|-------------------|
 |-------------------|-------------------|
 |--66666-88888------|----44444-6~-------|
 |4-66666-88888-66666|666-44444-6~-------|
 |4-44444-66666-66666|666-22222-4~-------|
 |2-------------44444|444----------------|

Interlude = 

E|-------------------|-------------|
B|-------------------|-------------|
G|--------4-----8----|4------------|
D|--4-----4(x8)-8(x8)|4(x8)-4~-----|
A|--4(x8)-2-----6----|2-----4~-----|
E|--2----------------|------2~-----|

Return To The Verse. 
Return To Pre Chorus.
Return To Chorus.
Return To Interlude(x2)

Bridge = 

E|-------------------|-------------------|-------------------|
B|-------------------|-----2--------2----|----4--------4-----|
G|--------4------3---|-------4--------3--|------4--------4---|
D|--6-----4(x20)-3x10|---4---------------|--6--------6-------|
A|--6(x8)-2------1---|-2----------4------|4--------4---------|
E|--4----------------|----------2--------|-------------------|

 |-------------------|-------------------|
 |-----2--------2----|----4--------4-----|
 |-------4--------3--|------4--------4---|(x3)
 |---4---------------|--6--------6-------|
 |-2----------4------|4--------4---------|
 |-------------------|-------------------| 

Return To Chorus.
Return To Interlude(x2)

Tap to rate this tab
 
# A B C D E F G H I J K L M N O P Q R S T U V W X Y Z