Song name
# A B C D E F G H I J K L M N O P Q R S T U V W X Y Z

Sixx Am - Heart Failure tab

-------------------------------------------------------------------------------
                             Heart Failure - Sixx:A.M.
-------------------------------------------------------------------------------
Tabbed by:TonyC
E-mail:tonycamposmusic@gmail.com

Tuning:DADGBE

Guitar 1
e|---------------------------------------------------------------------------|
B|------------------------------------------9--------------------9-----------|
G|---------------------------9b(10)-9b(10)---10---9b(10)-9b(10)---10-9-7-5-4-|
D|/7~-9-10-4~--9-10-5~--9-10-------------------------------------------------|
A|---------------------------------------------------------------------------|
D|---------------------------------------------------------------------------|
(WAH EFFECT)
e|---------------------------------------------------------------------------------|
B|---------------------------------------------------------------------------------|
G|---------------------------------------------------------------------------------|
D|---------------------------------------------------------------------------------|
A|0-7~-0-7~-0-8~-0-8~-0-5~-0-5~-0-2~-0-2~-0-7~-0-7~-0-8~-0-8~-0-5~-0-5~-0-2~-0-2---|
D|---------------------------------------------------------------------------------|

e|---------------------------------------------------------------------------|
B|---------------------------------------------------------------------------|
G|---------------------------------------------------------------------------|
D|7-7-7--5-5-5--7-7--3-3--5-5---7-7-7--5-5-5--7-7--3-3--5-5------------------|
A|7-7-7--5-5-5--5-5--3-3--5-5---7-7-7--5-5-5--5-5--3-3--5-5------------------|
D|7-7-7--5-5-5--0-0--3-3--5-5---7-7-7--5-5-5--0-0--3-3--5-5------------------|
(WAH EFFECT)
e|---------------------------------------------------------------------------------|
B|---------------------------------------------------------------------------------|
G|---------------------------------------------------------------------------------|
D|---------------------------------------------------------------------------------|
A|0-7~-0-7~-0-8~-0-8~-0-5~-0-5~-0-2~-0-2~-0-7~-0-7~-0-8~-0-8~-0-5~-0-5~-0-2~-0-2---|
D|---------------------------------------------------------------------------------|

e|-------------------------------------------------------------------------------------|
B|--10----10-------10------10------10-------10-----------------------------------------|
G|-9--9--9--9---9-----9---9---9---9---9----9---9--8b88888888---------------------------|
D|7-----7---------0-----0-------7-------6---------X-(continuously strum and bend)------|
A|------------------------------------------------6b66666666---------------------------|
D|-------------------------------------------------------------------------------------|

e|---------------------------------------------------------------------------|
B|---------------------------------------------------------------------------|
G|7-7-7--5-5-5--7-7-7--5-5-5--7-7--5-5--8-8-8--5-5-5--8-8-8--5-5-5--8-8--5-5-|
D|---------------------------------------------------------------------------|
A|5-5-5--3-3-3--5-5-5--3-3-3--5-5--3-3--6-6-6--3-3-3--6-6-6--3-3-3--6-6--3-3-|
D|---------------------------------------------------------------------------|

e|---------------------------------------------------------------------------|
B|---------------------------------------------------------------------------|
G|7-7-7--5-5-5--7-7-7--5-5-5--4-4--2-2--4-44-4/5-5-5\4/5\4/5-----------------|
D|---------------------------------------------------------------------------|
A|5-5-5--3-3-3--5-5-5--3-3-3--2-2--0-0--2-22-2/3-3-3\2/3\2/3-----------------|
D|---------------------------------------------------------------------------|

e|---------------------------------------------------------------------------|
B|---------------------------------------------------------------------------|
G|7-7-7--5-5-5--7-7-7--5-5-5--7-7--5-5--8-8-8--5-5-5--8-8-8--5-5-5--8-8--5-5-|
D|---------------------------------------------------------------------------|
A|5-5-5--3-3-3--5-5-5--3-3-3--5-5--3-3--6-6-6--3-3-3--6-6-6--3-3-3--6-6--3-3-|
D|---------------------------------------------------------------------------|

e|---------------------------------------------------------------------------|
B|---------------------------------------------------------------------------|
G|7-7-7--5-5-5--7-7-7--5-5-5--4-4--2-2---------------------------------------|
D|--------------------------------------2------------------------------------|
A|5-5-5--3-3-3--5-5-5--3-3-3--2-2--0-0--2------------------------------------|
D|--------------------------------------2------------------------------------|

(WAH EFFECT)
e|---------------------------------------------------------------------------------|
B|---------------------------------------------------------------------------------|
G|---------------------------------------------------------------------------------|
D|---------------------------------------------------------------------------------|
A|0-7~-0-7~-0-8~-0-8~-0-5~-0-5~-0-2~-0-2~-0-7~-0-7~-0-8~-0-8~-0-5~-0-5~-0-2~-0-2---|
D|---------------------------------------------------------------------------------|

e|---------------------------------------------------------------------------|
B|---------------------------------------------------------------------------|
G|---------------------------------------------------------------------------|
D|7-7-7--5-5-5--7-7--3-3--5-5---7-7-7--5-5-5--7-7--3-3--5-5------------------|
A|7-7-7--5-5-5--5-5--3-3--5-5---7-7-7--5-5-5--5-5--3-3--5-5------------------|
D|7-7-7--5-5-5--0-0--3-3--5-5---7-7-7--5-5-5--0-0--3-3--5-5------------------|
(WAH EFFECT)
e|---------------------------------------------------------------------------------|
B|---------------------------------------------------------------------------------|
G|---------------------------------------------------------------------------------|
D|---------------------------------------------------------------------------------|
A|0-7~-0-7~-0-8~-0-8~-0-5~-0-5~-0-2~-0-2~-0-7~-0-7~-0-8~-0-8~-0-5~-0-5~-0-2~-0-2---|
D|---------------------------------------------------------------------------------|

e|-------------------------------------------------------------------------------------|
B|--10----10-------10------10------10-------10-----------------------------------------|
G|-9--9--9--9---9-----9---9---9---9---9----9---9--8b88888888---------------------------|
D|7-----7---------0-----0-------7-------6---------X-(continuously strum and bend)------|
A|------------------------------------------------6b66666666---------------------------|
D|-------------------------------------------------------------------------------------|

e|---------------------------------------------------------------------------|
B|---------------------------------------------------------------------------|
G|7-7-7--5-5-5--7-7-7--5-5-5--7-7--5-5--8-8-8--5-5-5--8-8-8--5-5-5--8-8--5-5-|
D|---------------------------------------------------------------------------|
A|5-5-5--3-3-3--5-5-5--3-3-3--5-5--3-3--6-6-6--3-3-3--6-6-6--3-3-3--6-6--3-3-|
D|---------------------------------------------------------------------------|

e|---------------------------------------------------------------------------|
B|---------------------------------------------------------------------------|
G|7-7-7--5-5-5--7-7-7--5-5-5--4-4--2-2--4-44-4/5-5-5\4/5\4/5-----------------|
D|---------------------------------------------------------------------------|
A|5-5-5--3-3-3--5-5-5--3-3-3--2-2--0-0--2-22-2/3-3-3\2/3\2/3-----------------|
D|---------------------------------------------------------------------------|

e|---------------------------------------------------------------------------|
B|---------------------------------------------------------------------------|
G|7-7-7--5-5-5--7-7-7--5-5-5--7-7--5-5--8-8-8--5-5-5--8-8-8--5-5-5--8-8--5-5-|
D|---------------------------------------------------------------------------|
A|5-5-5--3-3-3--5-5-5--3-3-3--5-5--3-3--6-6-6--3-3-3--6-6-6--3-3-3--6-6--3-3-|
D|---------------------------------------------------------------------------|

e|---------------------------------------------------------------------------|
B|---------------------------------------------------------------------------|
G|7-7-7--5-5-5--7-7-7--5-5-5--4-4--2-2---------------------------------------|
D|--------------------------------------2-2-2-2------------------------------|
A|5-5-5--3-3-3--5-5-5--3-3-3--2-2--0-0--2-2-2-2------------------------------|
D|--------------------------------------2-2-2-2------------------------------|

e|---------------------------------------------------------------------------|
B|---------------------------------------------------------------------------|
G|---------------------------------------------------------------------------|
D|7~-9-10--6~-7-7/9\2-2/7-9-10-10/12~--10-9\2-2/7~--7/14~-12-10--9~--10-10/12|
A|---------------------------------------------------------------------------|
D|---------------------------------------------------------------------------|

e|---------------------------------------------------------------------------|
B|---------------------------------------------------------------------------|
G|9/12-5~--7-7/9-5~-5/10~--9-7-5-4-0-----------------------------------------|
D|---------------------------------------------------------------------------|
A|---------------------------------------------------------------------------|
D|---------------------------------------------------------------------------|

e|----------------------------------------------------------------------------------------------|
B|--10-13p10-13p10-12p10-13p10-15p10-13p10-12p10--10-13p10-13p10-12p10-13p10-15p10-13p10-12p10--|
G|12--------------------------------------------12----------------------------------------------|
D|----------------------------------------------------------------------------------------------|
A|----------------------------------------------------------------------------------------------|
D|----------------------------------------------------------------------------------------------|

e|---------------------------------------------------------------------------|
B|13p10-15p10-13p10-15p10--17-18-17-18-17-18-17-18-20-18-17-18---------------|
G|---------------------------------------------------------------------------|
D|---------------------------------------------------------------------------|
A|---------------------------------------------------------------------------|
D|---------------------------------------------------------------------------|

e|------------15---15---15---15----------------------------------------------|
B|20b-13~--15b--15b--15b--15b--15br-13-15--12-13-20~-18-17-------------------|
G|---------------------------------------------------------------------------|
D|---------------------------------------------------------------------------|
A|---------------------------------------------------------------------------|
D|---------------------------------------------------------------------------|
(WAH EFFECT)FOR THIS,ALWAYS PULL OFF TO 15. PLAY 17 & 18 RANDOMLY WITH WAH!
e|-----------------------22b-------------------------------------------------|
B|18p15-17p15-AND SO ON!-----------------------------------------------------|
G|---------------------------------------------------------------------------|
D|---------------------------------------------------------------------------|
A|---------------------------------------------------------------------------|
D|---------------------------------------------------------------------------|

e|---------------------------------------------------------------------------|
B|---------------------------------------------------------------------------|
G|7-7-7--5-5-5--7-7-7--5-5-5--7-7--5-5--8-8-8--5-5-5--8-8-8--5-5-5--8-8--5-5-|
D|---------------------------------------------------------------------------|
A|5-5-5--3-3-3--5-5-5--3-3-3--5-5--3-3--6-6-6--3-3-3--6-6-6--3-3-3--6-6--3-3-|
D|---------------------------------------------------------------------------|

e|---------------------------------------------------------------------------|
B|---------------------------------------------------------------------------|
G|7-7-7--5-5-5--7-7-7--5-5-5--4-4--2-2--4-44-4/5-5-5\4/5\4/5-----------------|
D|---------------------------------------------------------------------------|
A|5-5-5--3-3-3--5-5-5--3-3-3--2-2--0-0--2-22-2/3-3-3\2/3\2/3-----------------|
D|---------------------------------------------------------------------------|

e|---------------------------------------------------------------------------|
B|---------------------------------------------------------------------------|
G|7-7-7--5-5-5--7-7-7--5-5-5--7-7--5-5--8-8-8--5-5-5--8-8-8--5-5-5--8-8--5-5-|
D|---------------------------------------------------------------------------|
A|5-5-5--3-3-3--5-5-5--3-3-3--5-5--3-3--6-6-6--3-3-3--6-6-6--3-3-3--6-6--3-3-|
D|---------------------------------------------------------------------------|

e|---------------------------------------------------------------------------|
B|---------------------------------------------------------------------------|
G|7-7-7--5-5-5--7-7-7--5-5-5--4-4--2-2--4-44-4/5-5-5\4/5\4/5-----------------|
D|---------------------------------------------------------------------------|
A|5-5-5--3-3-3--5-5-5--3-3-3--2-2--0-0--2-22-2/3-3-3\2/3\2/3-----------------|
D|---------------------------------------------------------------------------|

e|---------------------------------------------------------------------------|
B|---------------------------------------------------------------------------|
G|7-7-7--5-5-5--7-7-7--5-5-5--7-7--5-5--8-8-8--5-5-5--8-8-8--5-5-5--8-8--5-5-|
D|---------------------------------------------------------------------------|
A|5-5-5--3-3-3--5-5-5--3-3-3--5-5--3-3--6-6-6--3-3-3--6-6-6--3-3-3--6-6--3-3-|
D|---------------------------------------------------------------------------|

e|---------------------------------------------------------------------------|
B|---------------------------------------------------------------------------|
G|7-7-7--5-5-5--7-7-7--5-5-5--4-4--2-2--4-44-4/5-5-5\4/5\4/5-----------------|
D|---------------------------------------------------------------------------|
A|5-5-5--3-3-3--5-5-5--3-3-3--2-2--0-0--2-22-2/3-3-3\2/3\2/3-----------------|
D|---------------------------------------------------------------------------|

e|---------------------------------------------------------------------------|
B|---------------------------------------------------------------------------|
G|7-7-7--5-5-5--7-7-7--5-5-5--7-7--5-5--8-8-8--5-5-5--8-8-8--5-5-5--8-8--5-5-|
D|---------------------------------------------------------------------------|
A|5-5-5--3-3-3--5-5-5--3-3-3--5-5--3-3--6-6-6--3-3-3--6-6-6--3-3-3--6-6--3-3-|
D|---------------------------------------------------------------------------|

e|---------------------------------------------------------------------------|
B|---------------------------------------------------------------------------|
G|7-7-7--5-5-5--7-7-7--5-5-5--4-4--2-2---------------------------------------|
D|--------------------------------------2------------------------------------|
A|5-5-5--3-3-3--5-5-5--3-3-3--2-2--0-0--2------------------------------------|
D|--------------------------------------2------------------------------------|
(WAH EFFECT)
e|---------------------------------------------------------------------------------|
B|---------------------------------------------------------------------------------|
G|---------------------------------------------------------------------------------|
D|---------------------------------------------------------------------------------|
A|0-7~-0-7~-0-8~-0-8~-0-5~-0-5~-0-2~-0-2~-0-7~-0-7~-0-8~-0-8~-0-5~-0-5~-0-2~-0-2---|
D|---------------------------------------------------------------------------------|

e|------------------------------------------------------------------------------|
B|------------------------------------------------------------------------------|
G|------------------------------------------------------------------------------|
D|7-7-7\------------------------------------------------------------------------|
A|7-7-7\------------------------------------------------------------------------|
D|7-7-7\------------------------------------------------------------------------|

************************************

| /   slide up
| \   slide down
| h   hammer-on
| p   pull-off
| ~   vibrato
| +   harmonic
| x   Mute note
| b   Bend
| pb  Pre-bend
| br  Bend release
| pbr Pre-bend release
| brb Bend release bend

************************************
Tap to rate this tab
# A B C D E F G H I J K L M N O P Q R S T U V W X Y Z