Song name
# A B C D E F G H I J K L M N O P Q R S T U V W X Y Z

Sixx Am - X-mas In Hell tab

-------------------------------------------------------------------------------
			     X-Mas in Hell - Sixx AM
-------------------------------------------------------------------------------
Tabbed by: Schade
Email: schadeam@gmail.com

Tuning: Standard

e|----------------------------|
B|---1--0--1-------1--0--1----|    X2
G|-2---------2---2---------2--|
D|----------------------------|
A|0---0---0----0-----0--0-----|
E|----------------------------|

e|----0-------0---------0------0-----|
B|--1-----3------1----1------3---1---|   X1
G|-----------------------------------|
D|-----------------------------------|
A|3-----3---3-------3------3---------|
E|-----------------------------------|

e|-----------------------------------------------------------------------------------------|
B|----0---------0--------0------0-------------------------------0-----0--------1--0--1-----|
G|--0------2------0----0---2------0--------2----0-----2-------0---2-----0-----2--------2---|
D|--------------------------------------3----------------3---------------------------------|
A|--------------------------------------------------------------------------0----0--0------|
E|3------3----3------3--------3------1--------1-----1-------3-------3----------------------|


 then loud distortion, effects. I work mainly with acoustic guitars, so skipped tabbing 
part. Not difficult to figure out. I recommend checking out the Solo Tab that was posted 
the other UG member. Good stuff, good song.

Peace. -Schade


| /  slide up
| \  slide down
| h  hammer-on
| p  pull-off
| ~  vibrato
| +  harmonic
| x  Mute note
===============================================================================
Tap to rate this tab
 
# A B C D E F G H I J K L M N O P Q R S T U V W X Y Z