Song name
# A B C D E F G H I J K L M N O P Q R S T U V W X Y Z

Size 14 - Claire Danes Poster tab

Intro:

Lead
|--------------------|-----------------|-------------------------|
|--------------------|-----------------|-------------------------|
|--8-8-8-9-11-11-9-8-|-6-6-6-8-9-9-8-6-|-8-8-8-8-6-6-6-6-4-4-4-4-|
|--------------------|-----------------|-------------------------|
|--------------------|-----------------|-------------------------|
|--------------------|-----------------|-------------------------|

Rhythm
|--------------------|-----------------|-------------------------|
|--------------------|-----------------|-------------------------|
|--------------------|-----------------|-------------------------|
|--------------------|-----------------|-13------11------9-------|
|--------------------|-----------------|-13------11------9-------|
|--------------------|-----------------|-11-------9------7-------|

I'll update it later (hopefully) if I have the time. Already figured out first part of 
verse anyway...

franzrebs12492@yahoo.com

~~~~~~~~~~~~~~~~~~~~~~~~~~~~~~~~~~~
They are a signed band, but their last album was released in 1997, that's why this band 
quite rare on the Internet.

This link provides info about them:

http://www.myspace.com/sizefourteen/

AND to prove that they are a signed band:

http://www.artistdirect.com/nad/music/artist/card/0,,583999,00.html
Tap to rate this tab
# A B C D E F G H I J K L M N O P Q R S T U V W X Y Z