Song name
# A B C D E F G H I J K L M N O P Q R S T U V W X Y Z

Sizemix - Dub Run tab

-----------------------------------------------------------------------------
			                            Dub Run - Sizemix
-----------------------------------------------------------------------------
Tabbed by: fujifisher
Email: fujifisher@gmail.com
Band website: http://www.sizemix.net/ or http://www.myspace.com/sizemix

Tuning:Standard

This is the intro to the Sizemix song Dub run. As far as I know it's correct and the 
tab out for the song.

Repeat this part a few times...
e|------------------------------------------------------------------------|
B|------------------------------------------------------------------------|
G|------------------------------------------------------------------------|
D|---12----------12-11---12-----------------------------------------------|
A|------11----11------------11--------10----------------------------------|
E|---------10------------------11--10-------------------------------------|

I think these are the chords and the order they're played, but I'm not sure.

e|------------------------------------------------------------------------|
B|------------------------------------------------------------------------|
G|------------------------------------------------------------------------|
D|----12--12--12--12--12--12--12--11--------------------------------------|
A|----11--11--11--11--11--11--11--10--------------------------------------|
E|----10--10--11--11--10--10--11--10--------------------------------------|

As for the solo... Good luck with figuring that out on your own
Tap to rate this tab
 
# A B C D E F G H I J K L M N O P Q R S T U V W X Y Z