Song name
# A B C D E F G H I J K L M N O P Q R S T U V W X Y Z

Ska-p - La Estampida tab

La Estampida- Ska-P

Intro Pt.1
Play C5 till “hui!!!”

Intro Pt.2    x2

E|--3-3-3--3-3-3--6-6-6--6-6-6---3-3-3—-3-3-3--6-6-6—-6-6-6--|
H|--3-3-3--3-3-3--6-6-6--6-6-6---3-3-3--3-3-3--8-8-8--6-6-6--|
G|--5-5-5--5-5-5--7-7-7--7-7-7---5-5-5--5-5-5--8-8-8--7-7-7--|
D|--5-5-5—-5-5-5--8-8-8--8-8-8---5-5-5--5-5-5---------8-8-8--|
A|----------------8-8-8--8-8-8------------------------8-8-8--|
E|-----------------------------------------------------------|

Verse    x2

E|---------------------|
H|---------------------|
G|--5----3-5----5--8-3-|
D|--5----3-5----5--8-3-|
A|--3----1-3----3—-6-1-|
E|---------------------|

Pre-Chorus  (ska-rhythm)   x4

E|--3---3---6---6--|
H|--5---5---8---6--|
G|--5---5---8---7--|
D|--5--—5---8---8--|
A|--------------8--|
E|-----------------|
Then play intro pt.2, verse and pre-chorus
 
Chorus
                            x2                                 End
E|--------------------------------------------------------|-------------|
H|--------------------------------------------------------|-------------|
G|--5~----5—-5--8--3--8--8—-7--7--5--5--8--3--5--5--3--3--|--5~----3~---|
D|--5~----5—-5--8--3--8--8--7--7--5--5--8--3--5--5--3--3--|--5~----3~---|
A|--3~----3—-3—-6--1--6--6--5--5--3—-3--6--1--3--3--1--1--|--3~----1~---|
E|--------------------------------------------------------|-------------|
Then play intro pt.2

Bridge

E|-------------------------------------------------------------|
H|-------------------------------------------------------------|
G|--5----3-5----5--8-3---5-5--5-5-5--5-5-5--5-5-5-5--5-3--3----|
D|--5----3-5----5--8-3---5-5--5-5-5--5-5-5--5-5-5-5--5-3--3-3--|
A|--3----1-3----3—-6-1---3-3--3-3-3--3-3-3--3-3-3-3—-3-1--1-3--|
E|----------------------------------------------------------1--|

E|----------------------------------------|
H|----------------------------------------|
G|--5-5--5-5-5--5-5-5--5-5-5-5--5------3--|
D|--5-5--5-5-5--5-5-5--5-5-5-5--5-6--6-3--|
A|--3-3--3-3-3--3-3-3--3-3-3-3—-3-6--6-1--|
E|--------------------------------4--4----|
Then play pre-chorus x2 and chorus


Interlude

E|--3-3-3--3-3-3--6-6-6--6-6-6---3-3-3—-3-3-3-----------------|
H|--3-3-3--3-3-3--6-6-6--6-6-6---3-3-3--3-3-3-----------------|
G|--5-5-5--5-5-5--7-7-7--7-7-7---5-5-5--5-5-5---5-5-5--3-3-3--|
D|--5-5-5—-5-5-5--8-8-8--8-8-8---5-5-5--5-5-5---5-5-5--3-3-3--|
A|----------------8-8-8--8-8-8------------------3-3-3--1-1-1--|
E|------------------------------------------------------------|

E|----------------------------------------------|
H|----------------------------------------------|
G|--5----3-5----8-8-8--3--5----3-5----8-8-8--3--|
D|--5----3-5----8-8-8--3--5----3-5----8-8-8--3--|
A|--3----1-3--—-6-6-6--1--3----1-3----6-6-6--1--|
E|----------------------------------------------|


Chorus
                            x4                            End
E|--------------------------------------------------|-------------|
H|--------------------------------------------------|-------------|
G|--5—-5--8--3--8--8—-7--7--5--5--8--3--5--5--3--3--|--5~----3~---|
D|--5—-5--8--3--8--8--7--7--5--5--8--3--5--5--3--3--|--5~----3~---|
A|--3—-3—-6--1--6--6--5--5--3—-3--6--1--3--3--1--1--|--3~----1~---|
E|--------------------------------------------------|-------------|

Outro

E|--3-3-3--3-3-3--6-6-6--6-6-6----------------------------------------|
H|--3-3-3--3-3-3--6-6-6--6-6-6----------------------------------------|
G|--5-5-5--5-5-5--7-7-7--7-7-7------------5-5-5-5-5-5-5-5-5-5-5-5--5--|
D|--5-5-5—-5-5-5--8-8-8--8-8-8------------5-5-5-5-5-5-5-5-5-5-5-5--5--|
A|----------------8-8-8--8-8-8------------3-3-3-3-3-3-3-3-3-3-3-3--3--|
E|--------------------------------------------------------------------|

Agazapado entre las sombras busca el momento ideal
La estampida es imminente, salva tu vida es fundamental
Eh no, basta ya, ven unamonos
Eh no, basta ya, organizacion
Eh no, basta ya, ven unamonos
Eh no, basta ya, organizacion

Mientras corro voy pensando, que podria pasar
Si a todos los cerebritos nos diera por pensar
Eh no, basta ya, ven unamonos
Eh no, basta ya, organizacion
Eh no, basta ya, ven unamonos
Eh no, basta ya, organizacion

Ha comenzado la estampida !

TUMBA TUMBAREMOS AL DEPREDADOR
TUMBA TIMBATUREMOS AL EJECUTOR
TUMBA TUMBAREMOS AL DEPREDADOR
TUMBA TIMBATUREMOS AL EJECUTOR

Aceptamos un sistema en el que tenemos todas las de perder
El pueblo vencido jamas estuv unido !
El pueblo unido jamas sera vencido !
El pueblo vencido jamas estuv unido !
El pueblo unido jamas sera vencido !

Ha comenzado la estampida !

TUMBA TUMBAREMOS AL DEPREDADOR
TUMBA TIMBATUREMOS AL EJECUTOR
TUMBA TUMBAREMOS AL DEPREDADOR
TUMBA TIMBATUREMOS AL EJECUTOR
(X3)
Tap to rate this tab
# A B C D E F G H I J K L M N O P Q R S T U V W X Y Z