Song name
# A B C D E F G H I J K L M N O P Q R S T U V W X Y Z

Ska-p - America Latina Libre tab

America latina libre - Ska-P

guitare accoustique
accords:  G C D

----------3------------------0------------------2----------------0---------------------|
-------------0------------------1------------------3---------------1-------------------|
----------------0------------------0--------2--------2-------0------0------------------|
-------------------------2---------------0------------------2--------------------------|
-----2---------------3------------------------------------3----------------------------|
--3------------------------------------------------------------------------------------|

----------3------------------0----------2------2p0-----3--------------------------------|
-------------0------------------1-------3-------------3---------------------------------|
----------------0------------------0----2-----------------------------------------------|
-------------------------2---------------0----------------------------------------------|
-----2---------------3------------------------------------------------------------------|
--3-------------------------------------------------------------------------------------|

Augustin T
Tap to rate this tab
 
# A B C D E F G H I J K L M N O P Q R S T U V W X Y Z