Song name
# A B C D E F G H I J K L M N O P Q R S T U V W X Y Z

Skallen Modric - Selalu Ada tab

Tab 1 Intro

e |------------------------------------------------------------------------|
B |-7-7-7-7p8-7-10-10-10-10-12-10-8-8-8-10-8-7-7-7-7-10-8-7-8--------------|
G |-7---------------------------------------------------------7------------|
D |------------------------------------------------------------------------|
A |------------------------------------------------------------------------|
E |------------------------------------------------------------------------|

e |------------------------------------------------------------------------|
B |-7-7-7-7p8-7-10-10-10-10-12-10-8-8-8-10-8-7-7-7---8-7-------------------|
G |-7----------------------------------------------9-----9--7--------------|
D |------------------------------------------------------------------------|
A |------------------------------------------------------------------------|
E |------------------------------------------------------------------------|

Tab 2 Melody

e |------------------------------------------------------------------------|
B |------------7-7-8-7---7-8-10--------------------------------------------|
G |7-7-7-7-7-9---------9---------------------------------------------------|
D |------------------------------------------------------------------------|
A |------------------------------------------------------------------------|
E |------------------------------------------------------------------------|

e |------------------------------------------------------------------------|
B |------------7-7-10-8-7----7---------------------------------------------|
G |7-7-7-7-7-9------------9-----9------------------------------------------|
D |------------------------------------------------------------------------|
A |------------------------------------------------------------------------|
E |------------------------------------------------------------------------|

e |---10-9-7-9-7-9--------10-9-7-9-7-9-10----------------------------------|
B |----------------10------------------------------------------------------|
G |7-------------------7---------------------------------------------------|
D |------------------------------------------------------------------------|
A |------------------------------------------------------------------------|
E |------------------------------------------------------------------------|

e |---10-9-7-9-7-9---------------------------------------------------------|
B |----------------10---7-7-7-8-7------------------------------------------|
G |7-------------------------------9-7-------------------------------------|
D |------------------------------------------------------------------------|
A |------------------------------------------------------------------------|
E |------------------------------------------------------------------------|
Tap to rate this tab
# A B C D E F G H I J K L M N O P Q R S T U V W X Y Z