Song name
# A B C D E F G H I J K L M N O P Q R S T U V W X Y Z

Skallen Modric - Hei Kawan tab

Tab 1 Intro

e |------------------------------------------------------------------------|
B |5-5-5-5-5-5-------------------5-----------------------------------------|
G |5-----------7-5-4-5-7-----5-7----7-5-5-7-5------------------------------|
D |----------------------5-7-----------------------------------------------|
A |------------------------------------------------------------------------|
E |------------------------------------------------------------------------|

e |------------------------------------------------------------------------|
B |5-5-5-6-8-6-5---5-6----------5------------------------------------------|
G |5-------------7----------5-7---7-5-5-7-5--------------------------------|
D |---------------------5-7------------------------------------------------|
A |------------------------------------------------------------------------|
E |------------------------------------------------------------------------|

e |------------------------------------------------------------------------|
B |5-5-5-6-8-6-5---5-6-8-10-8-10-8-5-6-5-6-5-------------------------------|
G |5-------------7---------------------------7-5---------------------------|
D |------------------------------------------------------------------------|
A |------------------------------------------------------------------------|
E |------------------------------------------------------------------------|

e |------------------------------------------------------------------------|
B |5-5-5-6-8-6-5---5-6----------5------------------------------------------|
G |5-------------7----------5-7---7-5-5-7-5--------------------------------|
D |---------------------5-7------------------------------------------------|
A |------------------------------------------------------------------------|
E |------------------------------------------------------------------------|


Tab 2 Melody

e |------------------------------------------------------------------------|
B |----5-5-5----------------------6-6-6-6-6-5------------------------------|
G |5-7-------7-5-5----5-----5--7--------------7-7-5-7----------------------|
D |----------------7-----7-------------------------------------------------|
A |------------------------------------------------------------------------|
E |------------------------------------------------------------------------|

e |------------------------------------------------------------------------|
B |5-6-6-6-6-8-10-8-6------5-5-5-5-----------------------------------------|
G |--------------------5-7----------7-5-4-4-4-4----------------------------|
D |------------------------------------------------------------------------|
A |------------------------------------------------------------------------|
E |------------------------------------------------------------------------|

e |------------------------------------------------------------------------|
B |----5-5-5-------------------6-6-6-6-6-5---------------------------------|
G |5-7-------7-5-5-5-4-5----7--------------7-7-5-7-------------------------|
D |------------------------------------------------------------------------|
A |------------------------------------------------------------------------|
E |------------------------------------------------------------------------|

e |--------------------------------------8---------------------------------|
B |5-6-6-6-6-8-10-8-6------5-5-5-5-6---------------------------------------|
G |--------------------5-7-------------------------------------------------|
D |------------------------------------------------------------------------|
A |------------------------------------------------------------------------|
E |------------------------------------------------------------------------|
Tap to rate this tab
 
# A B C D E F G H I J K L M N O P Q R S T U V W X Y Z