Song name
# A B C D E F G H I J K L M N O P Q R S T U V W X Y Z

Skank - Proibido Fumar tab

Tom: F#

(intro)


E |---------------------------------------------------2-2-4-2---2-----2------------------------|
A |-----------------------------------------------------------0---2-1--------------------------|
D |-------------------4-4---4------------------------------------------------------------------|
G |-----4-----4---4-3-----3---3-4-----4-----4---4-3----------------------4---------------------|
B |-2-2---2-2---2-----------------2-2---2-2---2----------------------------2-------------------|
E |--------------------------------------------------------------------------------------------|


(solo)

E |--------------------------------------------------------------------------------------------|
A |--------------------------------------------------------------------------------------------|
D |---------4-----------------------4---------4-2-4--------------------------------------------|
G |-----4-3---3-4-----4-3-------4-3---4---4-3--------------------------------------------------|
B |-2-2-----------2-2-------2-2---------2---------------------5-4-5---------------5-4-4-5------|
E |-------------------------------------------------5-5-3-2-2-------2---5-5-3-2-2---------2----|


(F#)
É proibido fumar
diz o aviso que eu li
É proibido fumar
pois o fogo pode pegar
C#
Mas nem adianta o aviso olhar
B
Pois a brasa que agora eu vou mandar
(F#)
Nem bombeiro pode apagar
Nem bombeiro pode apagar
Eu pego uma garota
E canto uma canção
Nela dou um beijo
Com empolgação
Do beijo sais faísca
E a turma toda grita
C#
Que o fogo pode pegar

(F#)
Nem bombeiro pode apagar
O Beijo que eu dei nela assim
Nem bombeiro pode apagar
Garota pegou fogo em mim
C#
Sigo incendiando bem contente e feliz
B
Nunca respeitando o aviso que diz
Que é proibido fumar
Que é proibido fumar
Tap to rate this tab
# A B C D E F G H I J K L M N O P Q R S T U V W X Y Z