Song name
# A B C D E F G H I J K L M N O P Q R S T U V W X Y Z

Skankin Pickle - Gates Of Steel tab

----------------------------------------------------------------------------
                        gates of steel-skankin pickle
----------------------------------------------------------------------------

Tabed By: XgreenoughX

Tunning: Regular
Intro:
e|-------------------------------------------------------------------------|
B|-------------------------------------------------------------------------|
G|-------------------------------------------------------------------------|
D|-----------------------------5-------------------------------------------|
A|-x33-3-x33-3-x33-3-x33-3-x33-3-x33-3-x33-3-x33-3-x33-3-x33-3
E|-x11-1-x11-1-x11-1-x11-1-x11---x11-1-x11-1-x11-1-x11-1-x11-1-------------|

Verse:
e|-------------------------------------------------------------------------|
B|-------------------------------------------------------------------------|
G|-------------------------------------------------------------------------|
D|-------------------------------------------------------------------------|
A|-10--9-7-5-x555555555555--10--9-7-5-x555555555555-3-x333333-7-5-3-x333333|
E|--8--7-5-3-x333333333333---8--7-5-3-x333333333333-1-x111111-5-3-1-x111111|


e|-------------------|
B|-------------------|
G|-------------------|
D|-------------------|Then play the same as the intro to end the verse
A|-7-5-3-x333333-7-5-|Play the verse three times until the ska solo
E|-5-3-1-x111111-5-3-|

Ska Solo:All up strokes
e|-x-0-0-0-0-0-0-xx-3-3-3-3-3-3-xx-3-3-3-3-3-3-----------------------------|
B|-x-1-1-1-1-1-1-xx-3-3-3-3-3-3-xx-5-5-5-5-5-5-----------------------------|
G|-x-0-0-0-0-0-0-xx-4-4-4-4-4-4-xx-5-5-5-5-5-5-----------------------------|
D|-x-2-2-2-2-2-2-xx-5-5-5-5-5-5-xx-3-3-3-3-3-3-----------------------------|
A|-x-3-3-3-3-3-3-xx-3-3-3-3-3-3-xx-3-3-3-3-3-3-----------------------------|
E|-x-------------xx-3-3-3-3-3-3-xx-3-3-3-3-3-3-----------------------------|

After the solo:
e|---------------------|
B|---------------------|
G|---------------------|
D|---------------------|then play the part in the verse that starts on the 
A|-5-x555555-5-x555555-|5th fret. After that play the verse 3 times until 
E|-3-x333333-3-x333333-|the end. 

Listen to the song its really easy to play.

| x  mute

Enjoy!!!!
Tap to rate this tab
# A B C D E F G H I J K L M N O P Q R S T U V W X Y Z