Skankin Pickle - Its Margaret Cho tab

Here's a great song by Skankin' Pickle 

Intro:
E-------------------------------------------|
B---9-9-9-9-9-------9-----------------------|
G---9-9-9-9-9-------9-----------------------|
D---9-9-9-9-9-------9-----------------------|
A-------------------------------------------|
E-------------------------------------------|

Verse:
E---5----5----7----5----(10)------------------|
B---5----7----9----5----(12)------------------|
G---6----7----9----6----(12)------------------|
D---7----7----9----7----(12)------------------|
A---------------------------------------------|
E---------------------------------------------|
    A    D    E    A     A
                  (Sometimes goes an octave higher at A)

Chorus:
E---5----5----------------------------------|
B---5----7----------------------------------|
G---6----7----------------------------------|
D---7----7----------------------------------|
A-------------------------------------------|
E-------------------------------------------|
    A    D
  
Outro:
E---5----5-5-5------------------------------|
B---5----5-5-5------------------------------|
G---6----6-6-6------------------------------|
D---7----7-7-7------------------------------|
A-------------------------------------------|
E-------------------------------------------|
    A      A

That's about it lemme know if I messed up at all
Tap to rate this tab
 
# A B C D E F G H I J K L M N O P Q R S T U V W X Y Z