Song name
# A B C D E F G H I J K L M N O P Q R S T U V W X Y Z

Skard - Steve tab

elec guitar (clean)

-----------------------------------------------------------------|
-----------------------------------------------------------------|
-----------------------------------------------------------------|
-3-3-3-0--------------------3-3-3-0------------------------------|
---------2--2-2---------------------2--2-2-----------------------|
----------------3--3-3-5-5----------------3--3-3-5-5-------------|


---------------------------|
---------------------------|
-3-3-3-0-------------------|Repeat this
-3-3-3-0-2--2-2------------|seven times
---------2--2-2-3--3-3-5-5-|
----------------3--3-3-5-5-|


(heavy distortion)
------------------------------------------------------------------------------------|
------------------------------------------------------------------------------------|
------------------------------------------------------------------------------------|
(  repeat this four times       )-------------------------------------------5-------|
-5-5-5-5-5-5-5-5-3-3-3-3-3-3-3-3-9-9-9-9-9-9-9-9-7-7-7-7-7-7-7-7~~~~~~~~--5---5~~~~-|
-3-3-3-3-3-3-3-3-1-1-1-1-1-1-1-1-7-7-7-7-7-7-7-7-5-5-5-5-5-5-5-5~~~~~~~~3-----------|

(clean)
-----------------------------------------------------------------|
-----------------------------------------------------------------|
-----------------------------------------------------------------|
-3-3-3-0--------------------3-3-3-0------------------------------|
---------2--2-2---------------------2--2-2-----------------------|
----------------3--3-3-5-5----------------3--3-3--5--5-----------|


This song was summitted by Justin Fown if you have any questions,comments,or suggestions e mail me at justin_f150@yahoo.com
Tap to rate this tab
 
# A B C D E F G H I J K L M N O P Q R S T U V W X Y Z