Song name
# A B C D E F G H I J K L M N O P Q R S T U V W X Y Z

Skarily Perfect - Love Song tab

Artist:  Skarily Perfect
Song: Love Song
Date:11/2/01
R:Rest a beat
        R       R
E|-4-4-4-4--2-2-2-2-------------------------------|
B|-4-4-4-4--2-2-2-2-------------------------------|
D|-4-4-4-4--2-2-2-2-------------------------------|
G|------------------------------------------------|
A|------------------------------------------------|
e|------------------------------------------------|
Repeat that once or twice, then comes the first verse.
I've seen things, in the past
People, churches, cheetahs that run fast.
But nothing quite as pretty as you,
And I plan, on staying with you.
Chorus:
E|-4-4-2-4-6-6-6|
B|-4-4-2-4-6-6-6|
D|-4-4-2-4-6-6-6|
G|--------------|
A|--------------|
e|--------------|
Repeat twice while saying.
Staying with you!
Staying with you!
Tap to rate this tab
# A B C D E F G H I J K L M N O P Q R S T U V W X Y Z