Guitaretab - guitar tabs
Song name
# A B C D E F G H I J K L M N O P Q R S T U V W X Y Z

Skarlateens - Le Refuge De La Ptite Bete tab

Tabbed by Dav
Artist: Skarlateens 
Title: Le refuge de la ptite bÍte
Instument: guitar

x= "ghost" note: play without any sounds, just the strings scratches noises.


  Intro
e:-----0-------5-------7-------5-------0-------5----7-7-7-7-7----|
b:---0---0---5---5---7---7---5---5---0---0---5---5--7-7-7-7-7----|
g:-0-------5-------7-------5-------0-------5--------7-7-7-7-7----| 
d:---------------------------------------------------------------|
a:---------------------------------------------------------------| 
E:---------------------------------------------------------------|
  
  Refrain (7x)
e:-0-0-x-0-x-0-x-0-5-5-x-5-x-5-x-5-7-7-x-7-x-7-x-7-5-5-x-x-3~-2~-|
b:-0-0-x-0-x-0-x-0-5-5-x-5-x-5-x-5-7-7-x-7-x-7-x-7-5-5-x-x-3~-2~-|
g:-0-0-x-0-x-0-x-0-5-5-x-5-x-5-x-5-7-7-x-7-x-7-x-7-5-5-x-x-3~-2~-| 
d:---------------------------------------------------------------|
a:---------------------------------------------------------------| 
E:---------------------------------------------------------------|

  Break I 
e:-0-0-x-0-x-0-x-0-5-5-x-5-x-5-x-5-7-7-7-7-7-7-7-7-7~------------|
b:-0-0-x-0-x-0-x-0-5-5-x-5-x-5-x-5-7-7-7-7-7-7-7-7-7~------------|
g:-0-0-x-0-x-0-x-0-5-5-x-5-x-5-x-5-7-7-7-7-7-7-7-7-7~------------| 
d:------------------------------------------------------5--4-----|
a:------------------------------------------------------5--4-----| 
E:------------------------------------------------------3--2-----|

  Couplet (5x)
e:---------------------------------------------------------------|
b:---------------------------------------------------------------|
g:---------------------------------------------------------------| 
d:-2-2-2-2-2-2-2-2-7-7-7-7-7-7-7-7-9-9-9-9-9-9-9-9-7-7-7-x-5-4---|
a:-2-2-2-2-2-2-2-2-7-7-7-7-7-7-7-7-9-9-9-9-9-9-9-9-7-7-7-x-5-4---| 
E:-0-0-0-0-0-0-0-0-5-5-5-5-5-5-5-5-7-7-7-7-7-7-7-7-5-5-5-x-3-2---|
[ Tab from: http://www.guitaretab.com/s/skarlateens/49744.html ]
  Break II
e:-------------------------------------------------------5-------|
b:-------------------------------------------------------5-------|
g:---------------------------------------------------7-7-5-------| 
d:-2-2-2-2-2-2-2-2-7-7-7-7-7-7-7-7-9-9-9-9-9-9-9-9-7-7-5---------|
a:-2-2-2-2-2-2-2-2-7-7-7-7-7-7-7-7-9-9-9-9-9-9-9-9-7-5-----------| 
E:-0-0-0-0-0-0-0-0-5-5-5-5-5-5-5-5-7-7-7-7-7-7-7-7-5-------------|

  Refrain (7x)
e:-0-0-x-0-x-0-x-0-5-5-x-5-x-5-x-5-7-7-x-7-x-7-x-7-5-5-x-x-3~-2~-|
b:-0-0-x-0-x-0-x-0-5-5-x-5-x-5-x-5-7-7-x-7-x-7-x-7-5-5-x-x-3~-2~-|
g:-0-0-x-0-x-0-x-0-5-5-x-5-x-5-x-5-7-7-x-7-x-7-x-7-5-5-x-x-3~-2~-| 
d:---------------------------------------------------------------|
a:---------------------------------------------------------------| 
E:---------------------------------------------------------------|

  Break I 
e:-0-0-x-0-x-0-x-0-5-5-x-5-x-5-x-5-7-7-7-7-7-7-7-7-7~------------|
b:-0-0-x-0-x-0-x-0-5-5-x-5-x-5-x-5-7-7-7-7-7-7-7-7-7~------------|
g:-0-0-x-0-x-0-x-0-5-5-x-5-x-5-x-5-7-7-7-7-7-7-7-7-7~------------| 
d:------------------------------------------------------5--4-----|
a:------------------------------------------------------5--4-----| 
E:------------------------------------------------------3--2-----|

  Couplet (5x)
e:---------------------------------------------------------------|
b:---------------------------------------------------------------|
g:---------------------------------------------------------------| 
d:-2-2-2-2-2-2-2-2-7-7-7-7-7-7-7-7-9-9-9-9-9-9-9-9-7-7-7-x-5-4---|
a:-2-2-2-2-2-2-2-2-7-7-7-7-7-7-7-7-9-9-9-9-9-9-9-9-7-7-7-x-5-4---| 
E:-0-0-0-0-0-0-0-0-5-5-5-5-5-5-5-5-7-7-7-7-7-7-7-7-5-5-5-x-3-2---|

 Break II
e:-------------------------------------------------------5-------|
b:-------------------------------------------------------5-------|
g:---------------------------------------------------7-7-5-------| 
d:-2-2-2-2-2-2-2-2-7-7-7-7-7-7-7-7-9-9-9-9-9-9-9-9-7-7-5---------|
a:-2-2-2-2-2-2-2-2-7-7-7-7-7-7-7-7-9-9-9-9-9-9-9-9-7-5-----------| 
E:-0-0-0-0-0-0-0-0-5-5-5-5-5-5-5-5-7-7-7-7-7-7-7-7-5-------------|

  Refrain (7x)
e:-0-0-x-0-x-0-x-0-5-5-x-5-x-5-x-5-7-7-x-7-x-7-x-7-5-5-x-x-3~-2~-|
b:-0-0-x-0-x-0-x-0-5-5-x-5-x-5-x-5-7-7-x-7-x-7-x-7-5-5-x-x-3~-2~-|
g:-0-0-x-0-x-0-x-0-5-5-x-5-x-5-x-5-7-7-x-7-x-7-x-7-5-5-x-x-3~-2~-| 
d:---------------------------------------------------------------|
a:---------------------------------------------------------------| 
E:---------------------------------------------------------------|
Related for Le Refuge De La Ptite Bete tab