Song name
# A B C D E F G H I J K L M N O P Q R S T U V W X Y Z

Skarlateens - Case 11 Passez 2 Tours tab

Artist:Skarlateens
Song: Case 11 passez 2 tours

Quand j'entend ce sale...con
Dont le nom rime avec...pognon
j'ai envie de l'attraper pour pouvoir le...tuer!!!!

Intro: (X2)

e:----------------------------------------
b:----------------------------------------
g:-------------------------------4-4-4-4--
d:-6-6-6-6---2-2-2-2---4-4-4-4---4-4-4-4--
a:-6-6-6-6---2-2-2-2---4-4-4-4---2-2-2-2--
E:-4-4-4-4---0-0-0-0---2-2-2-2---2-2-2-2--

e:------------------------------------------|
b:------------------------------------------|
g:------------------------------------------|
d:---6-6-6-6---2-2-2-2---4-4-4-4-4-4-4-4----|
a:---6-6-6-6---2-2-2-2---4-4-4-4-4-4-4-4----|
E:---4-4-4-4---0-0-0-0---2-2-2-2-2-2-2-2----|

Couplet: (X2)

e:----------------------------------------
b:----------------------------------------
g:-------------------------------4-4-4-4--
d:-6-6-6-6---2-2-2-2---4-4-4-4---4-4-4-4--
a:-6-6-6-6---2-2-2-2---4-4-4-4---2-2-2-2--
E:-4-4-4-4---0-0-0-0---2-2-2-2---2-2-2-2--

e:------------------------------------------|
b:------------------------------------------|
g:------------------------------------------|
d:---6-6-6-6---2-2-2-2---4-4-4-4-4-4-4-4----|
a:---6-6-6-6---2-2-2-2---4-4-4-4-4-4-4-4----|
E:---4-4-4-4---0-0-0-0---2-2-2-2-2-2-2-2----|
Aprs avoir fait la guerre
Et mis les Afghans par terre
Opprim tant d'innocents
Avoir fait couler leur sang

Je condamne ce prsident
Et tous ses actes sanglant
Qui, par la mme occasion
Creront la Rvolution

Refrain: (X3)+ blanc 4 temps

e:-------------------------------------------|
b:-------------------------------------------|
g:-------------------------------------------|
d:--2-2-2-2---6-6-6-6---2-2-2-2---4-4-4-4----|
a:--2-2-2-2---6-6-6-6---2-2-2-2---4-4-4-4----|
E:--0-0-0-0---4-4-4-4---0-0-0-0---2-2-2-2----|
Dans quel monde vivons-nous ?
Sommes-nous tous devenus fous ?
Kill Bush! Kill Bush!
Kill Bush! Kill Bush!
Voulez-vous d'un malhonnte
Pour diriger cette plante ?
Bush par-ci, Bush par-l
J'le supporte pas.

Couplet 2:(idem couplet 1)
Levez-vous mes chers amis
Pour nous venger d'cet abruti
Faites lui mordre la poussire
Comme aux autres l'a fait son pre

Demain s'ra un autre jour 
Avec deux belles nouvelles tours 
Que notre petit Oussama
Evidemment dtruira

Refrain (X2)
Tap to rate this tab
# A B C D E F G H I J K L M N O P Q R S T U V W X Y Z