Song name
# A B C D E F G H I J K L M N O P Q R S T U V W X Y Z

Skarlet - Forgive Me tab

skarlet - forgive me
tabbed by skarlet

VERSE 1
e|-2-----3-----0-----2-|
B|-3-----0-----2-----0-|
G|-2-----0-----0-----2-|  x2
D|-0-----0-----2-----0-|
A|-------2-------------|
E|-------3-------------|

CHORUS
e|-22/55\4-----222-|
B|-33/66\5-----222-|
G|-22/55\4-----222-|  x4
D|-----------------|
A|-----------------|
E|-----------------|

VERSE 2
e|-2-----3-----0-----2-|
B|-3-----0-----2-----0-|
G|-2-----0-----0-----2-|  
D|-0-----0-----2-----0-|
A|-------2-------------|
E|-------3-------------|

CHORUS
e|-22/55\4-----222-|
B|-33/66\5-----222-|
G|-22/55\4-----222-|  x4
D|-----------------|
A|-----------------|
E|-----------------|

CHORUS
e|-22/55\4-----222-|
B|-33/66\5-----222-|
G|-22/55\4-----222-|  x4
D|-----------------|
A|-----------------|
E|-----------------|
Tap to rate this tab
# A B C D E F G H I J K L M N O P Q R S T U V W X Y Z